Cantor Cristão

home > Cantor Cristão

Adoração A Deus Tab

Cantor Cristão

Difficulty: nolevelnolevel

by HELON

tuner correct add songbook print version text version save to e-mail
chordsukulelecavacokeyboardtabbassdrumsharmonicsflute Guitar Pro
chords

Adoração A Deus

(Cantor Cristão)

  		 

  

E|-------------------------------------------------------------------------------------------| 
B|---------------------------------------------1---------------------------------------------| 
G|-----2--------------2---------------3--3--0-----2--0-------------0---------2---2--0--2--3--| 
D|--------3--0------------3--0-----3---------------------2--0---------2--3-------------------| 
A|--3-----------3-3-------------3-------------------------------3----------------------------| 
E|-------------------------------------------------------------------------------------------| 


E|--------------------------------------------| 
B|--1--3--1--1--1-----------------------------| 
G|----------------3--3---3--2-2---0-----------| 
D|-----------------------------------3--2--3--| 
A|--------------------------------------------| 
E|--------------------------------------------| 
	  

Search Paypal
auto scroll beats size up size down change color hide chords drawings
tab show chords e-chords YouTube Clip e-chords hide all tabs e-chords go to top tab