Bury Tomorrow

Portraits

Bury Tomorrow

tabs

by  IRONPOWER4EVER

save to print version add songbook text version e-mail correct tuner
chordsukulelecavacokeyboardtabbassdrumsharmonicaflute Guitar Pro
close

there isn't a video lesson for this song

chords

Portraits

	  		

Intro 1 

Guitar 1 
D-----------------------------------------------------------------| 
A-----------------------------------------------------------------| 
F-----------------------------------------------------------------| 
C-10~~~-10~~~-10~-------------------------------------------------| 
G-7~~~~-7~~~~-7~~-------------------------------------------------| 
C-7~~~~-7~~~~-7~~-------------------------------------------------| 

Guitar 2 
D-----------------------------------------------------------------| 
A-----------------------------------------------------------------| 
F-----------------------------------------------------------------| 
C---------------------------------10~~~-10~~~-10~-----------------| 
G---------------------------------7~~~~-7~~~~-7~~-----------------| 
C---------------------------------7~~~~-7~~~~-7~~-----------------| 

                                                                   
                                                                   


Chorus 1 

Guitar 1 
D-----------------------------------------------------------------| 
A-----------------------------------------------------------------| 
F-----------------------------------------------------------------| 
C-7~~~~-7~~~~-7~~-7~~~~-7~~~~-7~~-7~~~~-7~~~~-7~~-7~~~~-7~~~~-7~~-| 
G-7~~~~-7~~~~-7~~-7~~~~-7~~~~-7~~-7~~~~-7~~~~-7~~-7~~~~-7~~~~-7~~-| 
C-7~~~~-7~~~~-7~~-7~~~~-7~~~~-7~~-7~~~~-7~~~~-7~~-7~~~~-7~~~~-7~~-| 

Guitar 2 
D-----------------------------------------------------------------| 
A-----------------------------------------------------------------| 
F-----------------------------------------------------------------| 
C-10~~~-10~~~-10~-10~~~-10~~~-10~-10~~~-10~~~-12~-12~~~-12~~~-10~-| 
G-----------------------------------------------------------------| 
C-----------------------------------------------------------------| 

                                                                   

Guitar 1 
D-----------------------------------------------------------------| 
A-----------------------------------------------------------------| 
F-----------------------------------------------------------------| 
C-5~~~~-5~~~~-5~~-5~~~~-5~~~~-5~~-5~~~~-5~~~~-5~~-5~~~~-5~~~~-5~~-| 
G-5~~~~-5~~~~-5~~-5~~~~-5~~~~-5~~-5~~~~-5~~~~-5~~-5~~~~-5~~~~-5~~-| 
C-5~~~~-5~~~~-5~~-5~~~~-5~~~~-5~~-5~~~~-5~~~~-5~~-5~~~~-5~~~~-5~~-| 

Guitar 2 
D-----------------------------------------------------------------| 
A-----------------------------------------------------------------| 
F-----------------------------------------------------------------| 
C-10~~~-10~~~-10~-10~~~-10~~~-12~-9~~~~-9~~~~-9~~-9~~~~-9~~~~-9~~-| 
G-----------------------------------------------------------------| 
C-----------------------------------------------------------------| 

                                                                   

Guitar 1 
D-----------------------------------------------------------------| 
A-----------------------------------------------------------------| 
F-----------------------------------------------------------------| 
C-3~~~~-3~~~~-3~~-3~~~~-3~~~~-3~~-3~~~~-3~~~~-3~~-3~~~~-3~~~~-3~~-| 
G-3~~~~-3~~~~-3~~-3~~~~-3~~~~-3~~-3~~~~-3~~~~-3~~-3~~~~-3~~~~-3~~-| 
C-3~~~~-3~~~~-3~~-3~~~~-3~~~~-3~~-3~~~~-3~~~~-3~~-3~~~~-3~~~~-3~~-| 

Guitar 2 
D-----------------------------------------------------------------| 
A-----------------------------------------------------------------| 
F-----------------------------------------------------------------| 
C-7~~~~-5~~~~-7~~-7~~~~-7~~~~-7~~-7~~~~-7~~~~-7~~-5~~~~-5~~~~-5~~-| 
G-----------------------------------------------------------------| 
C-----------------------------------------------------------------| 

                                                                   

Guitar 1 
D-----------------------------------------------------------------| 
A-----------------------------------------------------------------| 
F-----------------------------------------------------------------| 
C-5~~~~-5~~~~-5~~-5~~~~-5~~~~-5~~-5~~~~-5~~~~-5~~-5~~~~-5~~~~-5~~-| 
G-5~~~~-5~~~~-5~~-5~~~~-5~~~~-5~~-5~~~~-5~~~~-5~~-5~~~~-5~~~~-5~~-| 
C-5~~~~-5~~~~-5~~-5~~~~-5~~~~-5~~-5~~~~-5~~~~-5~~-5~~~~-5~~~~-5~~-| 

Guitar 2 
D-----------------------------------------------------------------| 
A-----------------------------------------------------------------| 
F-----------------------------------------------------------------| 
C-7~~~~-7~~~~-7~~-7~~~~-7~~~~-9~~-9~~~~-9~~~~-9~~-9~~~~-9~~~~-10~-| 
G-----------------------------------------------------------------| 
C-----------------------------------------------------------------| 

                                                                   

Guitar 1 
D-----------------------------------------------------------------| 
A-----------------------------------------------------------------| 
F-----------------------------------------------------------------| 
C-7~~~~-7~~~~-7~~-7~~~~-7~~~~-7~~-7~~~~-7~~~~-7~~-7~~~~-7~~~~-7~~-| 
G-7~~~~-7~~~~-7~~-7~~~~-7~~~~-7~~-7~~~~-7~~~~-7~~-7~~~~-7~~~~-7~~-| 
C-7~~~~-7~~~~-7~~-7~~~~-7~~~~-7~~-7~~~~-7~~~~-7~~-7~~~~-7~~~~-7~~-| 

Guitar 2 
D-----------------------------------------------------------------| 
A-----------------------------------------------------------------| 
F---------------------------------------------9~~-9~~~~-9~~~~-9~~-| 
C-10~~~-10~~~-10~-10~~~-10~~~-10~-10~~~-10~~~---------------------| 
G-----------------------------------------------------------------| 
C-----------------------------------------------------------------| 

                                                                   

Guitar 1 
D-----------------------------------------------------------------| 
A-----------------------------------------------------------------| 
F-----------------------------------------------------------------| 
C-5~~~~-5~~~~-5~~-5~~~~-5~~~~-5~~-5~~~~-5~~~~-5~~-5~~~~-5~~~~-5~~-| 
G-5~~~~-5~~~~-5~~-5~~~~-5~~~~-5~~-5~~~~-5~~~~-5~~-5~~~~-5~~~~-5~~-| 
C-5~~~~-5~~~~-5~~-5~~~~-5~~~~-5~~-5~~~~-5~~~~-5~~-5~~~~-5~~~~-5~~-| 

Guitar 2 
D-----------------------------------------------------------------| 
A-----------------------------------------------------------------| 
F-----------------------------------------------------------------| 
C-10~~~-10~~~-10~-10~~~-10~~~-12~-9~~~~-9~~~~-9~~-9~~~~-9~~~~-9~~-| 
G-----------------------------------------------------------------| 
C-----------------------------------------------------------------| 

                                                                   

Guitar 1 
D-----------------------------------------------------------------| 
A-----------------------------------------------------------------| 
F-----------------------------------------------------------------| 
C-3~~~~-3~~~~-3~~-3~~~~-3~~~~-3~~-3~~~~-3~~~~-3~~-3~~~~-3~~~~-3~~-| 
G-3~~~~-3~~~~-3~~-3~~~~-3~~~~-3~~-3~~~~-3~~~~-3~~-3~~~~-3~~~~-3~~-| 
C-3~~~~-3~~~~-3~~-3~~~~-3~~~~-3~~-3~~~~-3~~~~-3~~-3~~~~-3~~~~-3~~-| 

Guitar 2 
D-----------------------------------------------------------------| 
A-----------------------------------------------------------------| 
F-----------------------------------------------------------------| 
C-10~~~-10~~~-10~-10~~~-10~~~-10~-10~~~-10~~~-9~~-9~~~~-9~~~~-5~~-| 
G-----------------------------------------------------------------| 
C-----------------------------------------------------------------| 

                                                                   

Guitar 1 
D-------------------------------------------------------------| 
A-------------------------------------------------------------| 
F-------------------------------------------------------------| 
C-5~~~~-5~~~~-5~~-5~~~~-5~~~~-5~~-5~~~~-5~~~~-5~~-5~~~~-5~~~~-| 
G-5~~~~-5~~~~-5~~-5~~~~-5~~~~-5~~-5~~~~-5~~~~-5~~-5~~~~-5~~~~-| 
C-5~~~~-5~~~~-5~~-5~~~~-5~~~~-5~~-5~~~~-5~~~~-5~~-5~~~~-5~~~~-| 

Guitar 2 
D-------------------------------------------------------------| 
A-------------------------------------------------------------| 
F-------------------------------------------------------------| 
C-5~~~~-5~~~~-5~~-5~~~~-5~~~~-5~~-7~~~~-7~~~~-7~~-7~~~~-7~~~~-| 
G-------------------------------------------------------------| 
C-------------------------------------------------------------| 

                                                               
                                                               


Bridge 1 

Guitar 1 
D-------------------------------------------------------------| 
A-------------------------------------------------------------| 
F-----------------------------------12--------------9h10p9----| 
C-7---------10------9-------10--------------10-------------10-| 
G-7-----0-------0-------0-------0-------0-------0-------------| 
C-7-----------------------------------------------------------| 
pm.     .       .       .       .       .       . 

Guitar 2 
D-------------------------------------------------------------| 
A-------------------------------------------------------------| 
F-------------------------------------------------------------| 
C-7~~~~-------------------------------------------------------| 
G-------------------------------------------------------------| 
C-------------------------------------------------------------| 

                                                               

Guitar 1 
D-------------------------------------------------------------| 
A-------------------------------------------------------------| 
F-------------------------------------------------------------| 
C-5~~~~-5---7---5---7---9---5---3~~~~-3---5---3---5---7---3---| 
G-5~~~~-------------------------3~~~~-------------------------| 
C-5~~~~-------------------------3~~~~-------------------------| 
pm      .       .           .         .       .           . 

Guitar 2 
D-------------------------------------------------------------| 
A-------------------------------------------------------------| 
F-------------------------------------------------------------| 
C-5~~~~~~~~~~~~~~~~~~~~~~~~~~~~-3~~~~-------------------------| 
G-5~~~~~~~~~~~~~~~~~~~~~~~~~~~~-3~~~~-------------------------| 
C-5~~~~~~~~~~~~~~~~~~~~~~~~~~~~-3~~~~-------------------------| 

                                                               

Guitar 1 
D-------------------------------------------------------------| 
A-------------------------------------------------------------| 
F-----------------------------------12--------------9h10p9----| 
C-7---------10------9-------10--------------10-------------10-| 
G-7-----0-------0-------0-------0-------0-------0-------------| 
C-7-----------------------------------------------------------| 
pm.     .       .       .       .       .       . 

Guitar 2 
D-------------------------------------------------------------| 
A-------------------------------------------------------------| 
F-------------------------------------------------------------| 
C-7~~~~-------------------------------------------------------| 
G-7~~~~-------------------------------------------------------| 
C-7~~~~-------------------------------------------------------| 

                                                               

Guitar 1 
D-------------------------------------------------------------| 
A-------------------------------------------------------------| 
F-------------------------------------------------------------| 
C-5~~~~-5---7---5---7---9---5---3~~~~-3---5---3---5---7---3---| 
G-5~~~~-------------------------3~~~~-------------------------| 
C-5~~~~-------------------------3~~~~-------------------------| 
pm      .       .           .         .       .           . 

Guitar 2 
D-------------------------------------------------------------| 
A-------------------------------------------------------------| 
F-------------------------------------------------------------| 
C-5~~~~~~~~~~~~~~~~~~~~~~~~~~~~-3~~~~-------------------------| 
G-5~~~~~~~~~~~~~~~~~~~~~~~~~~~~-3~~~~-------------------------| 
C-5~~~~~~~~~~~~~~~~~~~~~~~~~~~~-3~~~~-------------------------| 

                                                               
                                                               


Verse 

(x2) 

Guitar 1 
D-------------------------------------------------------------| 
A-------------------------------------------------------------| 
F-----------------------------------12--------------9h10p9----| 
C-7---------10------9-------10--------------10-------------10-| 
G-7-----0-------0-------0-------0-------0-------0-------------| 
C-7-----------------------------------------------------------| 
pm.     .       .       .       .       .       . 

Guitar 2 
D-------------------------------------------------------------| 
A-----------------------------------8---------------7h8p7-----| 
F-----------9-------7-------9---------------9--------------9--| 
C-7-----7-------7-------7-------7-------7-------7-------------| 
G-7-----------------------------------------------------------| 
C-7-----------------------------------------------------------| 
pm.     .       .       .       .       .       . 

                                                               

Guitar 1 
D-------------------------------------------------------------| 
A-------------------------------------------------------------| 
F-------------------------------------------------------------| 
C-5~~~~-5---7---5---7---9---5---3~~~~-3---5---3---5---7---3---| 
G-5~~~~-------------------------3~~~~-------------------------| 
C-5~~~~-------------------------3~~~~-------------------------| 
pm      .       .           .         .       .           . 

Guitar 2 
D-------------------------------------------------------------| 
A-------------------------------------------------------------| 
F-----------6-------6---8-----------------3-------3---5-------| 
C-5~~~~-5-------5-----------5---3~~~~-3-------3-----------3---| 
G-5~~~~-------------------------3~~~~-------------------------| 
C-5~~~~-------------------------3~~~~-------------------------| 
pm      .       .           .         .       .           . 

                                                               
                                                               


Bridge 2 

(x2) 

Guitar 1 
D-------------------------------------------------------------| 
A-------------------------------------------------------------| 
F-------------------------------------------------------------| 
C-0~~~~~~-0---0---0---0---0---0---0---0---0---0---0---0---0---| 
G-0~~~~~~-0---0---0---0---0---0---0---0---0---0---0---0---0---| 
C-0~~~~~~-0---0---0---0---0---0---0---0---0---0---0---0---0---| 

Guitar 2 
D-------------------------------------------------------------| 
A-6~~~~~~-6---6---6---6---6---6---6---6---6---6---6---6---6---| 
F-x-------x---x---x---x---x---x---x---x---x---x---x---x---x---| 
C-3~~~~~~-3---3---3---3---3---3---3---3---3---3---3---3---3---| 
G-------------------------------------------------------------| 
C-------------------------------------------------------------| 

                                                               

Guitar 1 
D-------------------------------------------------------------| 
A-------------------------------------------------------------| 
F-------------------------------------------------------------| 
C-3~~~~~~-3---3---3---3---3---5~~~~~~-5---5---5---5---5---5---| 
G-3~~~~~~-3---3---3---3---3---5~~~~~~-5---5---5---5---5---5---| 
C-3~~~~~~-3---3---3---3---3---5~~~~~~-5---5---5---5---5---5---| 

Guitar 2 
D-------------------------------------------------------------| 
A-10~~~~~-10--10--10--10--10--12~~~~~-12--12--12--12--12--12--| 
F-x-------x---x---x---x---x---x-------x---x---x---x---x---x---| 
C-7~~~~~~-7---7---7---7---7---9~~~~~~-9---9---9---9---9---9---| 
G-------------------------------------------------------------| 
C-------------------------------------------------------------| 

                                                               
                                                               


Verse 

(x2) 

Guitar 1 
D-------------------------------------------------------------| 
A-------------------------------------------------------------| 
F-----------------------------------12--------------9h10p9----| 
C-7---------10------9-------10--------------10-------------10-| 
G-7-----0-------0-------0-------0-------0-------0-------------| 
C-7-----------------------------------------------------------| 
pm.     .       .       .       .       .       . 

Guitar 2 
D-------------------------------------------------------------| 
A-----------------------------------8---------------7h8p7-----| 
F-----------9-------7-------9---------------9--------------9--| 
C-7-----7-------7-------7-------7-------7-------7-------------| 
G-7-----------------------------------------------------------| 
C-7-----------------------------------------------------------| 
pm.     .       .       .       .       .       . 

                                                               

Guitar 1 
D-------------------------------------------------------------| 
A-------------------------------------------------------------| 
F-------------------------------------------------------------| 
C-5~~~~-5---7---5---7---9---5---3~~~~-3---5---3---5---7---3---| 
G-5~~~~-------------------------3~~~~-------------------------| 
C-5~~~~-------------------------3~~~~-------------------------| 
pm      .       .           .         .       .           . 

Guitar 2 
D-------------------------------------------------------------| 
A-------------------------------------------------------------| 
F-----------6-------6---8-----------------3-------3---5-------| 
C-5~~~~-5-------5-----------5---3~~~~-3-------3-----------3---| 
G-5~~~~-------------------------3~~~~-------------------------| 
C-5~~~~-------------------------3~~~~-------------------------| 
pm      .       .           .         .       .           . 

                                                               
                                                               


Bridge 3 

Guitar 1 
D-------------------------------------------------------------| 
A-------------------------------------------------------------| 
F-------------------------------------------------------------| 
C-0~~~~~~-0---0---0---0---0---0---0---0---0---0---0---0---0---| 
G-0~~~~~~-0---0---0---0---0---0---0---0---0---0---0---0---0---| 
C-0~~~~~~-0---0---0---0---0---0---0---0---0---0---0---0---0---| 

Guitar 2 
D-------------------------------------------------------------| 
A-6~~~~~~-6---6---6---6---6---6---6---6---6---6---6---6---6---| 
F-x-------x---x---x---x---x---x---x---x---x---x---x---x---x---| 
C-3~~~~~~-3---3---3---3---3---3---3---3---3---3---3---3---3---| 
G-------------------------------------------------------------| 
C-------------------------------------------------------------| 

                                                               

Guitar 1 
D-------------------------------------------------------------| 
A-------------------------------------------------------------| 
F-------------------------------------------------------------| 
C-3~~~~~~-3---3---3---3---3---5~~~~~~-5---5---5---5---5---5---| 
G-3~~~~~~-3---3---3---3---3---5~~~~~~-5---5---5---5---5---5---| 
C-3~~~~~~-3---3---3---3---3---5~~~~~~-5---5---5---5---5---5---| 

Guitar 2 
D-------------------------------------------------------------| 
A-10~~~~~-10--10--10--10--10--12~~~~~-12--12--12--12--12--12--| 
F-x-------x---x---x---x---x---x-------x---x---x---x---x---x---| 
C-7~~~~~~-7---7---7---7---7---9~~~~~~-9---9---9---9---9---9---| 
G-------------------------------------------------------------| 
C-------------------------------------------------------------| 

                                                               

Guitar 1 
D-------------------------------------------------------------| 
A-------------------------------------------------------------| 
F-------------------------------------------------------------| 
C-0-------0---0---0---0---0---0---0---0---0---0---0---0---0---| 
G-0-------0---0---0---0---0---0---0---0---0---0---0---0---0---| 
C-0-------0---0---0---0---0---0---0---0---0---0---0---0---0---| 

Guitar 2 
D-------------------------------------------------------------| 
A-6-------6---6---6---6---6---6---6---6---6---6---6---6---6---| 
F-x-------x---x---x---x---x---x---x---x---x---x---x---x---x---| 
C-3-------3---3---3---3---3---3---3---3---3---3---3---3---3---| 
G-------------------------------------------------------------| 
C-------------------------------------------------------------| 

                                                               

Guitar 1 
D-------------------------------------------------------------| 
A-------------------------------------------------------------| 
F-------------------------------------------------------------| 
C-3~~~~~~-3---3---3---3---3---5~~~~~~-5---5---5---5---5---5---| 
G-3~~~~~~-3---3---3---3---3---5~~~~~~-5---5---5---5---5---5---| 
C-3~~~~~~-3---3---3---3---3---5~~~~~~-5---5---5---5---5---5---| 

Guitar 2 
D-------------------------------------------------------------| 
A-10~~~~~-10--10--10--10--10--12~~~~~-12--12--12--12--12--12--| 
F-x-------x---x---x---x---x---x-------x---x---x---x---x---x---| 
C-7~~~~~~-7---7---7---7---7---9~~~~~~-9---9---9---9---9---9---| 
G-------------------------------------------------------------| 
C-------------------------------------------------------------| 

                                                               

Guitar 1 
D-------------------------------------------------------------| 
A-------------------------------------------------------------| 
F-------------------------------------------------------------| 
C-0~~~~~~-0---0---0---0---0---0---0---0---0---0---0---0---0---| 
G-0~~~~~~-0---0---0---0---0---0---0---0---0---0---0---0---0---| 
C-0~~~~~~-0---0---0---0---0---0---0---0---0---0---0---0---0---| 

Guitar 2 
D-------------------------------------------------------------| 
A-6---6---6---8---8---8---8---10--10--10--10--12--12--12--12--| 
F-x---x---x---x---x---x---x---x---x---x---x---x---x---x---x---| 
C-3---3---3---5---5---5---5---7---7---7---7---9---9---9---9---| 
G-------------------------------------------------------------| 
C-------------------------------------------------------------| 

                                                               

Guitar 1 
D-------------------------------------------------------------| 
A-------------------------------------------------------------| 
F-------------------------------------------------------------| 
C-3~~~~~~-3---3---3---3---3---5~~~~~~-5---5---5---5---5---5---| 
G-3~~~~~~-3---3---3---3---3---5~~~~~~-5---5---5---5---5---5---| 
C-3~~~~~~-3---3---3---3---3---5~~~~~~-5---5---5---5---5---5---| 

Guitar 2 
D-------------------------------------------------------------| 
A-8---8---8---8---10--10--10--10--12--12--12--12--13--13--13--| 
F-x---x---x---x---x---x---x---x---x---x---x---x---x---x---x---| 
C-5---5---5---5---7---7---7---7---9---9---9---9---10--10--10--| 
G-------------------------------------------------------------| 
C-------------------------------------------------------------| 

                                                               

Guitar 1 
D-------------------------------------------------------------| 
A-------------------------------------------------------------| 
F-------------------------------------------------------------| 
C-0~~~~~~-0---0---0---0---0---0---0---0---0---0---0---0---0---| 
G-0~~~~~~-0---0---0---0---0---0---0---0---0---0---0---0---0---| 
C-0~~~~~~-0---0---0---0---0---0---0---0---0---0---0---0---0---| 

Guitar 2 
D-------------------------------------------------------------| 
A-6---6---6---8---8---8---8---10--10--10--10--12--12--12--12--| 
F-x---x---x---x---x---x---x---x---x---x---x---x---x---x---x---| 
C-3---3---3---5---5---5---5---7---7---7---7---9---9---9---9---| 
G-------------------------------------------------------------| 
C-------------------------------------------------------------| 

                                                               

Guitar 1 
D-------------------------------------------------------------| 
A-------------------------------------------------------------| 
F-------------------------------------------------------------| 
C-3~~~~~~-3---3---3---3---3---5~~~~~~-5---5---5---5---5---5---| 
G-3~~~~~~-3---3---3---3---3---5~~~~~~-5---5---5---5---5---5---| 
C-3~~~~~~-3---3---3---3---3---5~~~~~~-5---5---5---5---5---5---| 

Guitar 2 
D-------------------------------------------------------------| 
A-13~~~~~-13--13--13--13--13--17~~~~~-17--17--17--17--17--17--| 
F-x-------x---x---x---x---x---x-------x---x---x---x---x---x---| 
C-10~~~~~-10--10--10--10--10--14~~~~~-14--14--14--14--14--14--| 
G-------------------------------------------------------------| 
C-------------------------------------------------------------| 

                                                               
                                                               

Breakdown 1 

Guitar 1 
D-----------------------------------------------------------------| 
A-----------------------------------------------------------------| 
F-----------------------------------------------------------------| 
C-7~~~~-7~~~~-7~~-7~~~~-7---7-7-------7---7-7---------------------| 
G-7~~~~-7~~~~-7~~-7~~~~-7---7-7-------7---7-7---------------------| 
C-7~~~~-7~~~~-7~~-7~~~~-7---7-7-------7---7-7---------------------| 
pm                      .   . .       .   . . 

                                                                   

(x2) 

Guitar 1 & 2 
D-----------------------------------------------------------------| 
A-----------------------------------------------------------------| 
F-----------------------------------------------------------------| 
C-7~~~~-7~~~~-7~~-7~~~~-7---7-7-------7---7-7-----7---7-7---7-7---| 
G-7~~~~-7~~~~-7~~-7~~~~-7---7-7-------7---7-7-----7---7-7---7-7---| 
C-7~~~~-7~~~~-7~~-7~~~~-7---7-7-------7---7-7-----7---7-7---7-7---| 
pm                      .   . .       .   . .     .   . .   . . 

                                                                   

Guitar 1 & 2 
D-----------------------------------------------------------------| 
A-----------------------------------------------------------------| 
F-----------------------------------------------------------------| 
C-7~~~~-7~~~~-7~~-7~~~~-7---7-7-------7---7-7-----7---7-7---7-7---| 
G-7~~~~-7~~~~-7~~-7~~~~-7---7-7-------7---7-7-----7---7-7---7-7---| 
C-7~~~~-7~~~~-7~~-7~~~~-7---7-7-------7---7-7-----7---7-7---7-7---| 
pm                      .   . .       .   . .     .   . .   . . 

                                                                   

Guitar 1 & 2 
D-----------------------------------------------------------------| 
A-----------------------------------------------------------------| 
F-----------------------------------------------------------------| 
C-0~~~~-0~~~~-0~~-0~~~~-0---0-0-------0---0-0-----0---0-0---0-0---| 
G-0~~~~-0~~~~-0~~-0~~~~-0---0-0-------0---0-0-----0---0-0---0-0---| 
C-0~~~~-0~~~~-0~~-0~~~~-0---0-0-------0---0-0-----0---0-0---0-0---| 
pm                      .   . .       .   . .     .   . .   . . 

                                                                   

Guitar 1 
D-----------------------------------------------------------------| 
A-----------------------------------------------------------------| 
F-----------------------------------------------------------------| 
C-3~~~~-3~~~~-3~~-3~~~~-3~~~~-3~~-5~~~~-5~~~~-5~~-5~~~~-5~~~~-5~~-| 
G-3~~~~-3~~~~-3~~-3~~~~-3~~~~-3~~-5~~~~-5~~~~-5~~-5~~~~-5~~~~-5~~-| 
C-3~~~~-3~~~~-3~~-3~~~~-3~~~~-3~~-5~~~~-5~~~~-5~~-5~~~~-5~~~~-5~~-| 

Guitar 2 
D------------------------------------------------------------------| 
A-------1~~~~-1~~~~~~~~-1~~~~-1~~~~~~~~-1~~~~-1~~~~~~~~-1~~~~-1~~~-| 
F---------4~~~~~~~~~~~~~~-4~~~~~~~~~~~~~~-4~~~~~~~~~~~~~~-4~~~~~~~-| 
C-0~~~~~~~~~~~~~~-0~~~~~~~~~~~~~~-0~~~~~~~~~~~~~~-0~~~~~~~~~~~~~~--| 
G------------------------------------------------------------------| 
C------------------------------------------------------------------| 

                                                                   
                                                                   


Chorus 1 

Guitar 1 
D-----------------------------------------------------------------| 
A-----------------------------------------------------------------| 
F-----------------------------------------------------------------| 
C-7~~~~-7~~~~-7~~-7~~~~-7~~~~-7~~-7~~~~-7~~~~-7~~-7~~~~-7~~~~-7~~-| 
G-7~~~~-7~~~~-7~~-7~~~~-7~~~~-7~~-7~~~~-7~~~~-7~~-7~~~~-7~~~~-7~~-| 
C-7~~~~-7~~~~-7~~-7~~~~-7~~~~-7~~-7~~~~-7~~~~-7~~-7~~~~-7~~~~-7~~-| 

Guitar 2 
D-----------------------------------------------------------------| 
A-----------------------------------------------------------------| 
F-----------------------------------------------------------------| 
C-10~~~-10~~~-10~-10~~~-10~~~-10~-10~~~-10~~~-12~-12~~~-12~~~-10~-| 
G-----------------------------------------------------------------| 
C-----------------------------------------------------------------| 

                                                                   

Guitar 1 
D-----------------------------------------------------------------| 
A-----------------------------------------------------------------| 
F-----------------------------------------------------------------| 
C-5~~~~-5~~~~-5~~-5~~~~-5~~~~-5~~-5~~~~-5~~~~-5~~-5~~~~-5~~~~-5~~-| 
G-5~~~~-5~~~~-5~~-5~~~~-5~~~~-5~~-5~~~~-5~~~~-5~~-5~~~~-5~~~~-5~~-| 
C-5~~~~-5~~~~-5~~-5~~~~-5~~~~-5~~-5~~~~-5~~~~-5~~-5~~~~-5~~~~-5~~-| 

Guitar 2 
D-----------------------------------------------------------------| 
A-----------------------------------------------------------------| 
F-----------------------------------------------------------------| 
C-10~~~-10~~~-10~-10~~~-10~~~-12~-9~~~~-9~~~~-9~~-9~~~~-9~~~~-9~~-| 
G-----------------------------------------------------------------| 
C-----------------------------------------------------------------| 

                                                                   

Guitar 1 
D-----------------------------------------------------------------| 
A-----------------------------------------------------------------| 
F-----------------------------------------------------------------| 
C-3~~~~-3~~~~-3~~-3~~~~-3~~~~-3~~-3~~~~-3~~~~-3~~-3~~~~-3~~~~-3~~-| 
G-3~~~~-3~~~~-3~~-3~~~~-3~~~~-3~~-3~~~~-3~~~~-3~~-3~~~~-3~~~~-3~~-| 
C-3~~~~-3~~~~-3~~-3~~~~-3~~~~-3~~-3~~~~-3~~~~-3~~-3~~~~-3~~~~-3~~-| 

Guitar 2 
D-----------------------------------------------------------------| 
A-----------------------------------------------------------------| 
F-----------------------------------------------------------------| 
C-7~~~~-5~~~~-7~~-7~~~~-7~~~~-7~~-7~~~~-7~~~~-7~~-5~~~~-5~~~~-5~~-| 
G-----------------------------------------------------------------| 
C-----------------------------------------------------------------| 

                                                                   

Guitar 1 
D-----------------------------------------------------------------| 
A-----------------------------------------------------------------| 
F-----------------------------------------------------------------| 
C-5~~~~-5~~~~-5~~-5~~~~-5~~~~-5~~-5~~~~-5~~~~-5~~-5~~~~-5~~~~-5~~-| 
G-5~~~~-5~~~~-5~~-5~~~~-5~~~~-5~~-5~~~~-5~~~~-5~~-5~~~~-5~~~~-5~~-| 
C-5~~~~-5~~~~-5~~-5~~~~-5~~~~-5~~-5~~~~-5~~~~-5~~-5~~~~-5~~~~-5~~-| 

Guitar 2 
D-----------------------------------------------------------------| 
A-----------------------------------------------------------------| 
F-----------------------------------------------------------------| 
C-7~~~~-7~~~~-7~~-7~~~~-7~~~~-9~~-9~~~~-9~~~~-9~~-9~~~~-9~~~~-10~-| 
G-----------------------------------------------------------------| 
C-----------------------------------------------------------------| 

                                                                   

Guitar 1 
D-----------------------------------------------------------------| 
A-----------------------------------------------------------------| 
F-----------------------------------------------------------------| 
C-7~~~~-7~~~~-7~~-7~~~~-7~~~~-7~~-7~~~~-7~~~~-7~~-7~~~~-7~~~~-7~~-| 
G-7~~~~-7~~~~-7~~-7~~~~-7~~~~-7~~-7~~~~-7~~~~-7~~-7~~~~-7~~~~-7~~-| 
C-7~~~~-7~~~~-7~~-7~~~~-7~~~~-7~~-7~~~~-7~~~~-7~~-7~~~~-7~~~~-7~~-| 

Guitar 2 
D-----------------------------------------------------------------| 
A-----------------------------------------------------------------| 
F---------------------------------------------9~~-9~~~~-9~~~~-9~~-| 
C-10~~~-10~~~-10~-10~~~-10~~~-10~-10~~~-10~~~---------------------| 
G-----------------------------------------------------------------| 
C-----------------------------------------------------------------| 

                                                                   

Guitar 1 
D-----------------------------------------------------------------| 
A-----------------------------------------------------------------| 
F-----------------------------------------------------------------| 
C-5~~~~-5~~~~-5~~-5~~~~-5~~~~-5~~-5~~~~-5~~~~-5~~-5~~~~-5~~~~-5~~-| 
G-5~~~~-5~~~~-5~~-5~~~~-5~~~~-5~~-5~~~~-5~~~~-5~~-5~~~~-5~~~~-5~~-| 
C-5~~~~-5~~~~-5~~-5~~~~-5~~~~-5~~-5~~~~-5~~~~-5~~-5~~~~-5~~~~-5~~-| 

Guitar 2 
D-----------------------------------------------------------------| 
A-----------------------------------------------------------------| 
F-----------------------------------------------------------------| 
C-10~~~-10~~~-10~-10~~~-10~~~-12~-9~~~~-9~~~~-9~~-9~~~~-9~~~~-9~~-| 
G-----------------------------------------------------------------| 
C-----------------------------------------------------------------| 

                                                                   

Guitar 1 
D-----------------------------------------------------------------| 
A-----------------------------------------------------------------| 
F-----------------------------------------------------------------| 
C-3~~~~-3~~~~-3~~-3~~~~-3~~~~-3~~-3~~~~-3~~~~-3~~-3~~~~-3~~~~-3~~-| 
G-3~~~~-3~~~~-3~~-3~~~~-3~~~~-3~~-3~~~~-3~~~~-3~~-3~~~~-3~~~~-3~~-| 
C-3~~~~-3~~~~-3~~-3~~~~-3~~~~-3~~-3~~~~-3~~~~-3~~-3~~~~-3~~~~-3~~-| 

Guitar 2 
D-----------------------------------------------------------------| 
A-----------------------------------------------------------------| 
F-----------------------------------------------------------------| 
C-10~~~-10~~~-10~-10~~~-10~~~-10~-10~~~-10~~~-9~~-9~~~~-9~~~~-5~~-| 
G-----------------------------------------------------------------| 
C-----------------------------------------------------------------| 

                                                                   

Guitar 1 
D-----------------------------------------------------------------| 
A-----------------------------------------------------------------| 
F-----------------------------------------------------------------| 
C-5~~~~-5~~~~-5~~-5~~~~-5~~~~-5~~-5~~~~-5~~~~-5~~-5~~~~-5~~~~-5~~-| 
G-5~~~~-5~~~~-5~~-5~~~~-5~~~~-5~~-5~~~~-5~~~~-5~~-5~~~~-5~~~~-5~~-| 
C-5~~~~-5~~~~-5~~-5~~~~-5~~~~-5~~-5~~~~-5~~~~-5~~-5~~~~-5~~~~-5~~-| 

Guitar 2 
D-----------------------------------------------------------------| 
A-----------------------------------------------------------------| 
F-----------------------------------------------------------------| 
C-5~~~~-5~~~~-5~~-5~~~~-5~~~~-5~~-7~~~~-7~~~~-7~~-7~~~~-7~~~~-7~~-| 
G-----------------------------------------------------------------| 
C-----------------------------------------------------------------| 

                                                                   
                                                                   


Interlude 1 

Guitar 1 
D-----------------------------------------------------------------| 
A-----------------------------------------------------------------| 
F-----------------------------------------------------------------| 
C-7~~~~~~~~~~~~~~~~~~~~~~~~~~~~~~~~~~~~~~~~~~~~~~~~~~~~~~~~~~~~~~- 
G-7~~~~~~~~~~~~~~~~~~~~~~~~~~~~~~~~~~~~~~~~~~~~~~~~~~~~~~~~~~~~~~- 
C-7~~~~~~~~~~~~~~~~~~~~~~~~~~~~~~~~~~~~~~~~~~~~~~~~~~~~~~~~~~~~~~- 

Guitar 2 (Clean with Echo Effect) 
D---------8~~~~~~~~~~~~~~~~~~~~-8~~~~~~~~~~~~~~~~~~~~~~~~~~~~~~~~-| 
A-----10~~~~~~~~~~~~~~~~~~~-10~~~~~~~~~~~~~~~~~~~~~~~~~~~~~~~~~~~-| 
F-9~~~~~~~~~~~~~~~~~~~~-9~~~~~~~~~~~~~~~~~~~~~~~~~~~~~~~~~~~~~~~~- 
C-----------------------------------------------------------------| 
G-----------------------------------------------------------------| 
C-----------------------------------------------------------------| 

                                                                   

Guitar 1 
D-----------------------------------------------------------------| 
A-----------------------------------------------------------------| 
F-----------------------------------------------------------------| 
C-7~~~~~~~~~~~~~~~~~~~~~~~~~~~~~~~~~~~~~~~~~~~~~~~~~~~~~~~~~~~~~~- 
G-7~~~~~~~~~~~~~~~~~~~~~~~~~~~~~~~~~~~~~~~~~~~~~~~~~~~~~~~~~~~~~~- 
C-7~~~~~~~~~~~~~~~~~~~~~~~~~~~~~~~~~~~~~~~~~~~~~~~~~~~~~~~~~~~~~~- 

Guitar 2 
D---------8~~~~~~~~~~~~~~~~~~~~-8~~~~~~~~~~~------12--13~~~~~~~~~-| 
A-----10~~~~~~~~~~~~~~~~~~~-10~~~~~~~~-10~~~-13~~~~~~~~~~-10~~\~~-| 
F-9~~~~~~~~~~~~~~~~~~~~-9~~~~~~~~~~~~~~~~~~~----------------------| 
C-----------------------------------------------------------------| 
G-----------------------------------------------------------------| 
C-----------------------------------------------------------------| 

                                                                   

Guitar 1 (Clean with Echo Effect) 
D---------12~~~~~~~~~~~~~~~~~~~-12~~~~~~~~~~~~~~~~~~~~~~~~~~~~~~~-| 
A-----10~~~~~~~~~~~~~~~~~~~-10~~~~~~~~~~~~~~~~~~~~~~~~~~~~~~~~~~~-| 
F-10~~~~~~~~~~~~~~~~~~~-10~~~~~~~~~~~~~~~~~~~~~~~~~~~~~~~~~~~~~~~-| 
C-----------------------------------------------------------------| 
G-----------------------------------------------------------------| 
C-----------------------------------------------------------------| 

Guitar 2 
D-----------------------------------------------------------------| 
A-----------------------------------------------------------------| 
F-----------------------------------------------------------------| 
C-0~~~~~~~~~~~~~~~~~~~~~~~~~~~~~~~~~~~~~~~~~~~~~~~~~~~~~~~~~~~~~~- 
G-0~~~~~~~~~~~~~~~~~~~~~~~~~~~~~~~~~~~~~~~~~~~~~~~~~~~~~~~~~~~~~~- 
C-0~~~~~~~~~~~~~~~~~~~~~~~~~~~~~~~~~~~~~~~~~~~~~~~~~~~~~~~~~~~~~~- 

                                                                   

Guitar 1 
D---------12~~~~~~~~~~~~~~~~~~~-12~~~~-8~/-10~-----10~/12~--------| 
A-----10~~~~~~~~~~~~~~~~~~~-10~~~~~~~~---------10~---------10~~~~-| 
F-10~~~~~~~~~~~~~~~~~~~-10~~~~~~~~~~~~----------------------------| 
C-----------------------------------------------------------------| 
G-----------------------------------------------------------------| 
C-----------------------------------------------------------------| 

Guitar 2 
D-----------------------------------------------------------------| 
A-----------------------------------------------------------------| 
F-----------------------------------------------------------------| 
C-0~~~~~~~~~~~~~~~~~~~~~~~~~~~~~~~~~~~~~~~~~~~~~~~~~~~~~~~~~~~~~~- 
G-0~~~~~~~~~~~~~~~~~~~~~~~~~~~~~~~~~~~~~~~~~~~~~~~~~~~~~~~~~~~~~~- 
C-0~~~~~~~~~~~~~~~~~~~~~~~~~~~~~~~~~~~~~~~~~~~~~~~~~~~~~~~~~~~~~~- 

                                                                   

Guitar 1 
D-----------------------------------------------------------------| 
A-----------------------------------------------------------------| 
F-----------------------------------------------------------------| 
C-7~~~~~~~~~~~~~~~~~~~~~~~~~~~~~~~~~~~~~~~~~~~~~~~~~~~~~~~~~~~~~~- 
G-7~~~~~~~~~~~~~~~~~~~~~~~~~~~~~~~~~~~~~~~~~~~~~~~~~~~~~~~~~~~~~~- 
C-7~~~~~~~~~~~~~~~~~~~~~~~~~~~~~~~~~~~~~~~~~~~~~~~~~~~~~~~~~~~~~~- 

Guitar 2 
D---------8~~~~~~~~~~~~~~~~~~~~-8~~~~~~~~~~~~~~~~~~~~~~~~~~~~~~~~-| 
A-----10~~~~~~~~~~~~~~~~~~~-10~~~~~~~~~~~~~~~~~~~~~~~~~~~~~~~~~~~-| 
F-9~~~~~~~~~~~~~~~~~~~~-9~~~~~~~~~~~~~~~~~~~~~~~~~~~~~~~~~~~~~~~~- 
C-----------------------------------------------------------------| 
G-----------------------------------------------------------------| 
C-----------------------------------------------------------------| 

                                                                   

Guitar 1 
D-----------------------------------------------------------------| 
A-----------------------------------------------------------------| 
F-----------------------------------------------------------------| 
C-7~~~~~~~~~~~~~~~~~~~~~~~~~~~~~~~~~~~~~~~~~~~~~~~~~~~~~~~~~~~~~~- 
G-7~~~~~~~~~~~~~~~~~~~~~~~~~~~~~~~~~~~~~~~~~~~~~~~~~~~~~~~~~~~~~~- 
C-7~~~~~~~~~~~~~~~~~~~~~~~~~~~~~~~~~~~~~~~~~~~~~~~~~~~~~~~~~~~~~~- 

Guitar 2 
D---------8~~~~~~~~~~~~~~~~~~~~-8~~~~~~~~~~~------12--13~~~~~~~~~-| 
A-----10~~~~~~~~~~~~~~~~~~~-10~~~~~~~~-10~~~-13~~~~~~~~~~-10~~\~~-| 
F-9~~~~~~~~~~~~~~~~~~~~-9~~~~~~~~~~~~~~~~~~~----------------------| 
C-----------------------------------------------------------------| 
G-----------------------------------------------------------------| 
C-----------------------------------------------------------------| 

                                                                   

Guitar 1 
D---------12~~~~~~~~~~~~~~~~~~~-12~~~~~~~~~~~~~~~~~~~~~~~~~~~~~~~-| 
A-----10~~~~~~~~~~~~~~~~~~~-10~~~~~~~~~~~~~~~~~~~~~~~~~~~~~~~~~~~-| 
F-10~~~~~~~~~~~~~~~~~~~-10~~~~~~~~~~~~~~~~~~~~~~~~~~~~~~~~~~~~~~~-| 
C-----------------------------------------------------------------| 
G-----------------------------------------------------------------| 
C-----------------------------------------------------------------| 

Guitar 2 
D-----------------------------------------------------------------| 
A-----------------------------------------------------------------| 
F-----------------------------------------------------------------| 
C-0~~~~~~~~~~~~~~~~~~~~~~~~~~~~~~~~~~~~~~~~~~~~~~~~~~~~~~~~~~~~~~- 
G-0~~~~~~~~~~~~~~~~~~~~~~~~~~~~~~~~~~~~~~~~~~~~~~~~~~~~~~~~~~~~~~- 
C-0~~~~~~~~~~~~~~~~~~~~~~~~~~~~~~~~~~~~~~~~~~~~~~~~~~~~~~~~~~~~~~- 


                                                                   

Guitar 1 
D---------12~~~~~~~~~~~~~~~~~~~-12~~~~~~~~~~~~~~~~~~~~~~~~~~~~~~~-| 
A-----10~~~~~~~~~~~~~~~~~~~-10~~~~~~~~~~~~~~~~~~~~~~~~~~~~~~~~~~~-| 
F-10~~~~~~~~~~~~~~~~~~~-10~~~~~~~~~~~~~~~~~~~~~~~~~~~~~~~~~~~~~~~-| 
C-----------------------------------------------------------------| 
G-----------------------------------------------------------------| 
C-----------------------------------------------------------------| 

Guitar 2 
D-----------------------------------------------------------------| 
A-----------------------------------------------------------------| 
F-----------------------------------------------------------------| 
C-0~~~~~~~~~~~~~~~~~~~~~~~~~~~~~~~~~~~~~~~~~~~~~~~~~~~~~~~~~~~~~~- 
G-0~~~~~~~~~~~~~~~~~~~~~~~~~~~~~~~~~~~~~~~~~~~~~~~~~~~~~~~~~~~~~~- 
C-0~~~~~~~~~~~~~~~~~~~~~~~~~~~~~~~~~~~~~~~~~~~~~~~~~~~~~~~~~~~~~~- 

                                                                   
                                                                   


Interlude 2 

Guitar 1 
D-----------------------------------------------------------------| 
A-----------------------------------------------------------------| 
F-----------------------------------------------------------------| 
C-7~~-7-7~~-7~~~~~~~~~~~~~~~~~~~~~~~~~~~~~~~~~~~~~~~~~~~~~~~~~~~~-| 
G-7~~-7-7~~-7~~~~~~~~~~~~~~~~~~~~~~~~~~~~~~~~~~~~~~~~~~~~~~~~~~~~-| 
C-7~~-7-7~~-7~~~~~~~~~~~~~~~~~~~~~~~~~~~~~~~~~~~~~~~~~~~~~~~~~~~~-| 

Guitar 2 
D-----------------------------------------------------------------| 
A-----------------------------------------------------------------| 
F-----------------------------------------------------------------| 
C-10~-10-10~-10p9~~-9-9~~-9p7~~-7-7~~-7p5~~-5-5~~~~~~~~-----------| 
G-------------------------------------------------------7~~~~~~~~-| 
C-----------------------------------------------------------------| 

                                                                   

Guitar 1 
D-----------------------------------------------------------------| 
A-----------------------------------------------------------------| 
F-----------------------------------------------------------------| 
C-7~~-7-7~~-7~~~~~~~~~~~~~~~~~~~~~~~~~~~~~~~~~~~~~~~~~~~~~~~~~~~~-| 
G-7~~-7-7~~-7~~~~~~~~~~~~~~~~~~~~~~~~~~~~~~~~~~~~~~~~~~~~~~~~~~~~-| 
C-7~~-7-7~~-7~~~~~~~~~~~~~~~~~~~~~~~~~~~~~~~~~~~~~~~~~~~~~~~~~~~~-| 

Guitar 2 
D-----------------------------------------------------------------| 
A-----------------------------------------------------------------| 
F-----------------------------------------------------------------| 
C-----------------------------------------------------------------| 
G-8~~-8-8~~-8p7~~-7-7~~-7~~-3~~-3-3~~-3~~-2~~-2-2~~~~~~~~~~~~~~~~-| 
C-----------------------------------------------------------------| 

Guitar 1 
D-----------------------------------------------------------------| 
A-----------------------------------------------------------------| 
F-----------------------------------------------------------------| 
C-0~~-0-0~~-0~~~~~~~~~~~~~~~~~~~~~~~~~~~~~~~~~~~~~~~~~~~~~~~~~~~~-| 
G-0~~-0-0~~-0~~~~~~~~~~~~~~~~~~~~~~~~~~~~~~~~~~~~~~~~~~~~~~~~~~~~-| 
C-0~~-0-0~~-0~~~~~~~~~~~~~~~~~~~~~~~~~~~~~~~~~~~~~~~~~~~~~~~~~~~~-| 

Guitar 2 
D-----------------------------------------------------------------| 
A-----------------------------------------------------------------| 
F-----------------------------------------------------------------| 
C-10~-10-10~-10p9~~-9-9~~-9p7~~-7-7~~-7p5~~-5-5~~~~~~~~-----------| 
G-------------------------------------------------------7~~~~~~~~-| 
C-----------------------------------------------------------------| 

                                                                   

Guitar 1 
D-----------------------------------------------------------------| 
A-----------------------------------------------------------------| 
F-----------------------------------------------------------------| 
C-0~~-0-0~~-0~~~~~~~~~~~~~~~~~~~~~~~~~~~~~~~~~~~~~~~~~~~~~~~~~~~~-| 
G-0~~-0-0~~-0~~~~~~~~~~~~~~~~~~~~~~~~~~~~~~~~~~~~~~~~~~~~~~~~~~~~-| 
C-0~~-0-0~~-0~~~~~~~~~~~~~~~~~~~~~~~~~~~~~~~~~~~~~~~~~~~~~~~~~~~~-| 

Guitar 2 
D-----------------------------------------------------------------| 
A-----------------------------------------------------------------| 
F-----------------------------------------------------------------| 
C-----------------------------------------------------------------| 
G-8~~-8-8~~-8p7~~-7-7~~-7~~-3~~-3-3~~-3~~-2~~-2-2~~~~~~~~~~~~~~~~-| 
C-----------------------------------------------------------------| 

Guitar 1 
D-----------------------------------------------------------------| 
A-----------------------------------------------------------------| 
F-----------------------------------------------------------------| 
C-7~~-7-7~~-7~~~~~~~~~~~~~~~~~~~~~~~~~~~~~~~~~~~~~~~~~~~~~~~~~~~~-| 
G-7~~-7-7~~-7~~~~~~~~~~~~~~~~~~~~~~~~~~~~~~~~~~~~~~~~~~~~~~~~~~~~-| 
C-7~~-7-7~~-7~~~~~~~~~~~~~~~~~~~~~~~~~~~~~~~~~~~~~~~~~~~~~~~~~~~~-| 

Guitar 2 
D-----------------------------------------------------------------| 
A-----------------------------------------------------------------| 
F-----------------------------------------------------------------| 
C-10~-10-10~-10p9~~-9-9~~-9p7~~-7-7~~-7p5~~-5-5~~~~~~~~-----------| 
G-------------------------------------------------------7~~~~~~~~-| 
C-----------------------------------------------------------------| 

                                                                   

Guitar 1 
D-----------------------------------------------------------------| 
A-----------------------------------------------------------------| 
F-----------------------------------------------------------------| 
C-7~~-7-7~~-7~~~~~~~~~~~~~~~~~~~~~~~~~~~~~~~~~~~~~~~~~~~~~~~~~~~~-| 
G-7~~-7-7~~-7~~~~~~~~~~~~~~~~~~~~~~~~~~~~~~~~~~~~~~~~~~~~~~~~~~~~-| 
C-7~~-7-7~~-7~~~~~~~~~~~~~~~~~~~~~~~~~~~~~~~~~~~~~~~~~~~~~~~~~~~~-| 

Guitar 2 
D-----------------------------------------------------------------| 
A-----------------------------------------------------------------| 
F-----------------------------------------------------------------| 
C-----------------------------------------------------------------| 
G-8~~-8-8~~-8p7~~-7-7~~-7~~-3~~-3-3~~-3~~-2~~-2-2~~~~~~~~~~~~~~~~-| 
C-----------------------------------------------------------------| 

Guitar 1 
D-----------------------------------------------------------------| 
A-----------------------------------------------------------------| 
F-----------------------------------------------------------------| 
C-0~~-0-0~~-0~~~~~~~~~~~~~~~~~~~~~~~~~~~~~~~~~~~~~~~~~~~~~~~~~~~~-| 
G-0~~-0-0~~-0~~~~~~~~~~~~~~~~~~~~~~~~~~~~~~~~~~~~~~~~~~~~~~~~~~~~-| 
C-0~~-0-0~~-0~~~~~~~~~~~~~~~~~~~~~~~~~~~~~~~~~~~~~~~~~~~~~~~~~~~~-| 

Guitar 2 
D-----------------------------------------------------------------| 
A-----------------------------------------------------------------| 
F-----------------------------------------------------------------| 
C-10~-10-10~-10p9~~-9-9~~-9p7~~-7-7~~-7p5~~-5-5~~~~~~~~-----------| 
G-------------------------------------------------------7~~~~~~~~-| 
C-----------------------------------------------------------------| 

                                                                   

Guitar 1 
D-----------------------------------------------------------------| 
A-----------------------------------------------------------------| 
F-----------------------------------------------------------------| 
C-3~~-3-3~~-3~~~~~~~~~~~~~~~~~~~~-5---5---5---5---5---5---5---5---| 
G-3~~-3-3~~-3~~~~~~~~~~~~~~~~~~~~-5---5---5---5---5---5---5---5---| 
C-3~~-3-3~~-3~~~~~~~~~~~~~~~~~~~~-5---5---5---5---5---5---5---5---| 

Guitar 2 
D-----------------------------------------------------------------| 
A-----------------------------------------------------------------| 
F-----------------------------------------------------------------| 
C---------------------------------7-7-7-7-7-7-7-7-5-5-5-5-5-5-5-5-| 
G-8~~-8-8~~-8p7~~-7-7~~-7~~-7~~~~---------------------------------| 
C-----------------------------------------------------------------| 

                                                                   
                                                                   


Breakdown 2 

(x2) 

Guitar 1 
D-----------------------------------------------------------------| 
A-----------------------------------------------------------------| 
F-----------------------------------------------------------------| 
C-7~~-7-7---7---10-10-10-10-9--9--9--9----------------------------| 
G-7~~-7-7---7---------------------------10-10-10-10-7~~~~~~~~~~~~-| 
C-7~~-7-7---7-----------------------------------------------------| 
pm      .   . 

Guitar 2 
D-----------------------------------------------------------------| 
A-----------------------------------------------------------------| 
F---------------9--9--9--9--7--7--7--7----------------------------| 
C-7~~-7-7---7---------------------------9--9--9--9--5~~~~~~~~~~~~-| 
G-7~~-7-7---7-----------------------------------------------------| 
C-7~~-7-7---7-----------------------------------------------------| 
pm      .   . 

                                                                   

Guitar 1 
D-----------------------------------------------------------------| 
A-----------------------------------------------------------------| 
F-----------------------------------------------------------------| 
C-7~~-7-7---7---10-10-10-10-9--9--9--9----------------------------| 
G-7~~-7-7---7---------------------------10-10-10-10-7~~~~~~~~~~~~-| 
C-7~~-7-7---7-----------------------------------------------------| 
pm    . .   . 

Guitar 2 
D-----------------------------------------------------------------| 
A-----------------------------------------------------------------| 
F---------------9--9--9--9--7--7--7--7----------------------------| 
C-7~~-7-7---7---------------------------9--9--9--9--5~~~~~~~~~~~~-| 
G-7~~-7-7---7-----------------------------------------------------| 
C-7~~-7-7---7-----------------------------------------------------| 
pm    . .   . 

                                                                   

Guitar 1 
D-----------------------------------------------------------------| 
A-----------------------------------------------------------------| 
F-----------------------------------------------------------------| 
C-3~~-3-3---3~~~~~~~~~~~~~~~~~~~~~~~~~~~~~~~~~~~~~~~~~~~~~~~~~~~~-| 
G-3~~-3-3---3~~~~~~~~~~~~~~~~~~~~~~~~~~~~~~~~~~~~~~~~~~~~~~~~~~~~-| 
C-3~~-3-3---3~~~~~~~~~~~~~~~~~~~~~~~~~~~~~~~~~~~~~~~~~~~~~~~~~~~~-| 
pm    . . 

Guitar 2 
D---------------------------------------------10--12p-10----------| 
A-----------------------------------------13--------------13------| 
F-------------------------------------14----------------------14--| 
C-3~~-3-3---3~~~~~~~~~~~~~~~~-----14------------------------------| 
G-3~~-3-3---3~~~~~~~~~~~~~~~~-12----------------------------------| 
C-3~~-3-3---3~~~~~~~~~~~~~~~~-------------------------------------| 
pm    . . 

                                                                   

Guitar 1 
D-------------------------------------------------| 
A-------------------------------------------------| 
F-------------------------------------------------| 
C-0~~~~~~-0-----0-----0---5~~~~~~-5-----5-----5---| 
G-0~~~~~~-0-----0-----0---5~~~~~~-5-----5-----5---| 
C-0~~~~~~-0-----0-----0---5~~~~~~-5-----5-----5---| 
pm        .     .     .           .     .     . 

Guitar 2 
D-------------------------------------------------| 
A-------------------------------------------------| 
F-10~~~~~~~~~~~~~~~~~~~~~-7~~~~~~~~~~~~~~~~~~~~~~-| 
C-------------------------------------------------| 
G-------------------------------------------------| 
C-------------------------------------------------| 

                                                                   
                                                                   


Break Off 

Guitar 1 & 2 
D-----------------------------------------------------------------| 
A-----------------------------------------------------------------| 
F-----------------------------------------------------------------| 
C-7-----7-----7-------7---7-7-------------------------------------| 
G-7-----7-----7-------7---7-7-------------------------------------| 
C-7-----7-----7-------7---7-7-------------------------------------| 
pm.     .     .       .   . . 

                                                                   
                                                                   


Breakdown 3 

(x2) 

Guitar 1 & 2 
D-----------------------------------------------------------------| 
A-----------------------------------------------------------------| 
F-----------------------------------------------------------------| 
C-7~~~~-7~~~~-7~~-7~~~~-7---7-7-------7---7-7-----7---7-7---7-7---| 
G-7~~~~-7~~~~-7~~-7~~~~-7---7-7-------7---7-7-----7---7-7---7-7---| 
C-7~~~~-7~~~~-7~~-7~~~~-7---7-7-------7---7-7-----7---7-7---7-7---| 
pm.     .     .   .     .   . .       .   . .     .   . .   . . 

                                                                   

Guitar 1 & 2 
D-----------------------------------------------------------------| 
A-----------------------------------------------------------------| 
F-----------------------------------------------------------------| 
C-7~~~~-7~~~~-7~~-7~~~~-7---7-7-------7---7-7-----7---7-7---7-7---| 
G-7~~~~-7~~~~-7~~-7~~~~-7---7-7-------7---7-7-----7---7-7---7-7---| 
C-7~~~~-7~~~~-7~~-7~~~~-7---7-7-------7---7-7-----7---7-7---7-7---| 
pm.     .     .   .     .   . .       .   . .     .   . .   . . 

                                                                   

Guitar 1 & 2 
D-----------------------------------------------------------------| 
A-----------------------------------------------------------------| 
F-----------------------------------------------------------------| 
C-0--0--0--0--0--0--0--0~~~-0-0-------0---0-0-----0---0-0---0-0---| 
G-0--0--0--0--0--0--0--0~~~-0-0-------0---0-0-----0---0-0---0-0---| 
C-0--0--0--0--0--0--0--0~~~-0-0-------0---0-0-----0---0-0---0-0---| 
pm.  .  .  .  .  .  .       . .       .   . .     .   . .   . . 

                                                                   

Guitar 1 
D-----------------------------------------------------------------| 
A-----------------------------------------------------------------| 
F-----------------------------------------------------------------| 
C-3~~~~-3~~~~-3~~-3~~~~-3~~~~-3~~-5~~~~-5~~~~-5~~-5~~~~-5~~~~-5~~-| 
G-3~~~~-3~~~~-3~~-3~~~~-3~~~~-3~~-5~~~~-5~~~~-5~~-5~~~~-5~~~~-5~~-| 
C-3~~~~-3~~~~-3~~-3~~~~-3~~~~-3~~-5~~~~-5~~~~-5~~-5~~~~-5~~~~-5~~-| 

Guitar 2 
D------------------------------------------------------------------| 
A-------1~~~~-1~~~~~~~~-1~~~~-1~~~~~~~~-1~~~~-1~~~~~~~~-1~~~~-1~~~-| 
F---------4~~~~~~~~~~~~~~-4~~~~~~~~~~~~~~-4~~~~~~~~~~~~~~-4~~~~~~~-| 
C-0~~~~~~~~~~~~~~-0~~~~~~~~~~~~~~-0~~~~~~~~~~~~~~-0~~~~~~~~~~~~~~--| 
G------------------------------------------------------------------| 
C------------------------------------------------------------------| 

                                                                   
                                                                   


Chorus 2 

Guitar 1 
D-----------------------------------------------------------------| 
A-----------------------------------------------------------------| 
F-----------------------------------------------------------------| 
C-7~~~~-7~~~~-7~~-7~~~~-7~~~~-7~~-7~~~~-7~~~~-7~~-7~~~~-7~~~~-7~~-| 
G-7~~~~-7~~~~-7~~-7~~~~-7~~~~-7~~-7~~~~-7~~~~-7~~-7~~~~-7~~~~-7~~-| 
C-7~~~~-7~~~~-7~~-7~~~~-7~~~~-7~~-7~~~~-7~~~~-7~~-7~~~~-7~~~~-7~~-| 

Guitar 2 
D-12~~~-12~~~-12~-12~~~-12~~~-12~-12~~~-12~~~-12~-12~~~-12~~~-12~-| 
A-----------------------------------------------------------------| 
F-----------------------------------------------------------------| 
C-----------------------------------------------------------------| 
G-----------------------------------------------------------------| 
C-----------------------------------------------------------------| 

                                                                   

Guitar 1 
D-----------------------------------------------------------------| 
A-----------------------------------------------------------------| 
F-----------------------------------------------------------------| 
C-5~~~~-5~~~~-5~~-5~~~~-5~~~~-5~~-5~~~~-5~~~~-5~~-5~~~~-5~~~~-5~~-| 
G-5~~~~-5~~~~-5~~-5~~~~-5~~~~-5~~-5~~~~-5~~~~-5~~-5~~~~-5~~~~-5~~-| 
C-5~~~~-5~~~~-5~~-5~~~~-5~~~~-5~~-5~~~~-5~~~~-5~~-5~~~~-5~~~~-5~~-| 

Guitar 2 
D-15~~~-15~~~-15~-15~~~-15~~~-15~-15~~~-15~~~-15~-15~~~-15~~~-15~-| 
A-----------------------------------------------------------------| 
F-----------------------------------------------------------------| 
C-----------------------------------------------------------------| 
G-----------------------------------------------------------------| 
C-----------------------------------------------------------------| 

                                                                   

Guitar 1 
D-----------------------------------------------------------------| 
A-----------------------------------------------------------------| 
F-----------------------------------------------------------------| 
C-3~~~~-3~~~~-3~~-3~~~~-3~~~~-3~~-3~~~~-3~~~~-3~~-3~~~~-3~~~~-3~~-| 
G-3~~~~-3~~~~-3~~-3~~~~-3~~~~-3~~-3~~~~-3~~~~-3~~-3~~~~-3~~~~-3~~-| 
C-3~~~~-3~~~~-3~~-3~~~~-3~~~~-3~~-3~~~~-3~~~~-3~~-3~~~~-3~~~~-3~~-| 

Guitar 2 
D-12~~~-12~~~-12~-12~~~-12~~~-12~-12~~~-12~~~-12~-12~~~-12~~~-12~-| 
A-----------------------------------------------------------------| 
F-----------------------------------------------------------------| 
C-----------------------------------------------------------------| 
G-----------------------------------------------------------------| 
C-----------------------------------------------------------------| 

                                                                   

Guitar 1 
D-----------------------------------------------------------------| 
A-----------------------------------------------------------------| 
F-----------------------------------------------------------------| 
C-5~~~~-5~~~~-5~~-5~~~~-5~~~~-5~~-5~~~~-5~~~~-5~~-5~~~~-5~~~~-5~~-| 
G-5~~~~-5~~~~-5~~-5~~~~-5~~~~-5~~-5~~~~-5~~~~-5~~-5~~~~-5~~~~-5~~-| 
C-5~~~~-5~~~~-5~~-5~~~~-5~~~~-5~~-5~~~~-5~~~~-5~~-5~~~~-5~~~~-5~~-| 

Guitar 2 
D-10~~~-10~~~-10~-10~~~-10~~~-10~-10~~~-10~~~-10~-10~~~-10~~~-10~-| 
A-----------------------------------------------------------------| 
F-----------------------------------------------------------------| 
C-----------------------------------------------------------------| 
G-----------------------------------------------------------------| 
C-----------------------------------------------------------------| 

                                                                   

Guitar 1 
D-----------------------------------------------------------------| 
A-----------------------------------------------------------------| 
F-----------------------------------------------------------------| 
C-7~~~~-7~~~~-7~~-7~~~~-7~~~~-7~~-7~~~~-7~~~~-7~~-7~~~~-7~~~~-7~~-| 
G-7~~~~-7~~~~-7~~-7~~~~-7~~~~-7~~-7~~~~-7~~~~-7~~-7~~~~-7~~~~-7~~-| 
C-7~~~~-7~~~~-7~~-7~~~~-7~~~~-7~~-7~~~~-7~~~~-7~~-7~~~~-7~~~~-7~~-| 

Guitar 2 
D-12~~~-12~~~-12~-12~~~-12~~~-12~-12~~~-12~~~-12~-12~~~-12~~~-12~-| 
A-----------------------------------------------------------------| 
F-----------------------------------------------------------------| 
C-----------------------------------------------------------------| 
G-----------------------------------------------------------------| 
C-----------------------------------------------------------------| 

                                                                   

Guitar 1 
D-----------------------------------------------------------------| 
A-----------------------------------------------------------------| 
F-----------------------------------------------------------------| 
C-5~~~~-5~~~~-5~~-5~~~~-5~~~~-5~~-5~~~~-5~~~~-5~~-5~~~~-5~~~~-5~~-| 
G-5~~~~-5~~~~-5~~-5~~~~-5~~~~-5~~-5~~~~-5~~~~-5~~-5~~~~-5~~~~-5~~-| 
C-5~~~~-5~~~~-5~~-5~~~~-5~~~~-5~~-5~~~~-5~~~~-5~~-5~~~~-5~~~~-5~~-| 

Guitar 2 
D-15~~~-15~~~-15~-15~~~-15~~~-15~-15~~~-15~~~-15~-15~~~-15~~~-15~-| 
A-----------------------------------------------------------------| 
F-----------------------------------------------------------------| 
C-----------------------------------------------------------------| 
G-----------------------------------------------------------------| 
C-----------------------------------------------------------------| 

                                                                   

Guitar 1 
D-----------------------------------------------------------------| 
A-----------------------------------------------------------------| 
F-----------------------------------------------------------------| 
C-3~~~~-3~~~~-3~~-3~~~~-3~~~~-3~~-3~~~~-3~~~~-3~~-3~~~~-3~~~~-3~~-| 
G-3~~~~-3~~~~-3~~-3~~~~-3~~~~-3~~-3~~~~-3~~~~-3~~-3~~~~-3~~~~-3~~-| 
C-3~~~~-3~~~~-3~~-3~~~~-3~~~~-3~~-3~~~~-3~~~~-3~~-3~~~~-3~~~~-3~~-| 

Guitar 2 
D-12~~~-12~~~-12~-12~~~-12~~~-12~-12~~~-12~~~-12~-12~~~-12~~~-12~-| 
A-----------------------------------------------------------------| 
F-----------------------------------------------------------------| 
C-----------------------------------------------------------------| 
G-----------------------------------------------------------------| 
C-----------------------------------------------------------------| 

                                                                   

Guitar 1 
D-----------------------------------------------------------------| 
A-----------------------------------------------------------------| 
F-----------------------------------------------------------------| 
C-5~~~~-5~~~~-5~~-5~~~~-5~~~~-5~~-5~~~~-5~~~~-5~~-5~~~~-5~~~~-5~~-| 
G-5~~~~-5~~~~-5~~-5~~~~-5~~~~-5~~-5~~~~-5~~~~-5~~-5~~~~-5~~~~-5~~-| 
C-5~~~~-5~~~~-5~~-5~~~~-5~~~~-5~~-5~~~~-5~~~~-5~~-5~~~~-5~~~~-5~~-| 

Guitar 2 
D-10~~~-10~~~-10~-10~~~-10~~~-10~-10~~~-10~~~-10~-10~~~-10~~~-10~-| 
A-----------------------------------------------------------------| 
F-----------------------------------------------------------------| 
C-----------------------------------------------------------------| 
G-----------------------------------------------------------------| 
C-----------------------------------------------------------------| 

                                                                   
                                                                   


Interlude 3 

(x2) 

Guitar 1 
D-----------------------------------------------------------------| 
A-----------------------------------------------------------------| 
F-----------------------------------------------------------------| 
C-7---7---7---7---7---7---7---7---7---7---7---7---7---7---7---7---| 
G-7---7---7---7---7---7---7---7---7---7---7---7---7---7---7---7---| 
C-7---7---7---7---7---7---7---7---7---7---7---7---7---7---7---7---| 

Guitar 2 
D-------------------------------------------------| 
A-13p10t15/17p10h13p10t15/17p10t15p10-13p10-12p10-| 
F-------------------------------------------------| 
C-------------------------------------------------| 
G-------------------------------------------------| 
C-------------------------------------------------| 

                                                                   

Guitar 1 
D-----------------------------------------------------------------| 
A-----------------------------------------------------------------| 
F-----------------------------------------------------------------| 
C-5---5---5---5---5---5---5---5---5---5---5---5---5---5---5---5---| 
G-5---5---5---5---5---5---5---5---5---5---5---5---5---5---5---5---| 
C-5---5---5---5---5---5---5---5---5---5---5---5---5---5---5---5---| 

Guitar 2 
D----------------------------------------------| 
A-12p8-t15/17t20p12p8-t15/17p8-t18p8-17p8-15p8-| 
F----------------------------------------------| 
C----------------------------------------------| 
G----------------------------------------------| 
C----------------------------------------------| 

                                                                   

Guitar 1 
D-----------------------------------------------------------------| 
A-----------------------------------------------------------------| 
F-----------------------------------------------------------------| 
C-3---3---3---3---3---3---3---3---3---3---3---3---3---3---3---3---| 
G-3---3---3---3---3---3---3---3---3---3---3---3---3---3---3---3---| 
C-3---3---3---3---3---3---3---3---3---3---3---3---3---3---3---3---| 

Guitar 2 
D---------------------------t13-------------------| 
A-10p6-t15/17p6-10p6-t13/15-----t13p6-t12p6-t13p6-| 
F-------------------------------------------------| 
C-------------------------------------------------| 
G-------------------------------------------------| 
C-------------------------------------------------| 

                                                                   

Guitar 1 
D-----------------------------------------------------------------| 
A-----------------------------------------------------------------| 
F-----------------------------------------------------------------| 
C-5---5---5---5---5---5---5---5---5---5---5---5---5---5---5---5---| 
G-5---5---5---5---5---5---5---5---5---5---5---5---5---5---5---5---| 
C-5---5---5---5---5---5---5---5---5---5---5---5---5---5---5---5---| 

Guitar 2 
D---------------------------------------------------| 
A------12-13-15-13-15---t17----t15----t18----t17~~~-| 
F-12p7----------------7-----h7-----h7-----h9--------| 
C---------------------------------------------------| 
G---------------------------------------------------| 
C---------------------------------------------------| 

                                                                   
                                                                   


Outro 

Guitar 1 
D-----------------------------------------------------------------| 
A-----------------------------------------------------------------| 
F-----------------------------------------------------------------| 
C-7~~~~~~~~~~~~~~~~~~~~~~~~~~~~~~~~~~~~~~~~~~~~~~~~~~~~~~~~~~~~~~- 
G-7~~~~~~~~~~~~~~~~~~~~~~~~~~~~~~~~~~~~~~~~~~~~~~~~~~~~~~~~~~~~~~- 
C-7~~~~~~~~~~~~~~~~~~~~~~~~~~~~~~~~~~~~~~~~~~~~~~~~~~~~~~~~~~~~~~- 

Guitar 2 
D-------------------------------------------------| 
A-13p10t15/17p10h13p10t15/17p10t15p10-13p10-12p10-| 
F-------------------------------------------------| 
C-------------------------------------------------| 
G-------------------------------------------------| 
C-------------------------------------------------| 

                                                                   

Guitar 1 
D-----------------------------------------------------------------| 
A-----------------------------------------------------------------| 
F-----------------------------------------------------------------| 
C-5~~~~~~~~~~~~~~~~~~~~~~~~~~~~~~~~~~~~~~~~~~~~~~~~~~~~~~~~~~~~~~- 
G-5~~~~~~~~~~~~~~~~~~~~~~~~~~~~~~~~~~~~~~~~~~~~~~~~~~~~~~~~~~~~~~- 
C-5~~~~~~~~~~~~~~~~~~~~~~~~~~~~~~~~~~~~~~~~~~~~~~~~~~~~~~~~~~~~~~- 

Guitar 2 
D----------------------------------------------| 
A-12p8-t15/17t20p12p8-t15/17p8-t18p8-17p8-15p8-| 
F----------------------------------------------| 
C----------------------------------------------| 
G----------------------------------------------| 
C----------------------------------------------| 

                                                                   

Guitar 1 
D-----------------------------------------------------------------| 
A-----------------------------------------------------------------| 
F-----------------------------------------------------------------| 
C-3~~~~~~~~~~~~~~~~~~~~~~~~~~~~~~~~~~~~~~~~~~~~~~~~~~~~~~~~~~~~~~- 
G-3~~~~~~~~~~~~~~~~~~~~~~~~~~~~~~~~~~~~~~~~~~~~~~~~~~~~~~~~~~~~~~- 
C-3~~~~~~~~~~~~~~~~~~~~~~~~~~~~~~~~~~~~~~~~~~~~~~~~~~~~~~~~~~~~~~- 

Guitar 2 
D---------------------------t13-------------------| 
A-10p6-t15/17p6-10p6-t13/15-----t13p6-t12p6-t13p6-| 
F-------------------------------------------------| 
C-------------------------------------------------| 
G-------------------------------------------------| 
C-------------------------------------------------| 

                                                                   

Guitar 1 
D-----------------------------------------------------------------| 
A-----------------------------------------------------------------| 
F-----------------------------------------------------------------| 
C-~~~~~~~~~~~~~~~~~~~~~~~~~~~~~~~~~~~~~~~~~~~~~~~~~~~~~~~~~~~~~~~- 
G-~~~~~~~~~~~~~~~~~~~~~~~~~~~~~~~~~~~~~~~~~~~~~~~~~~~~~~~~~~~~~~~- 
C-~~~~~~~~~~~~~~~~~~~~~~~~~~~~~~~~~~~~~~~~~~~~~~~~~~~~~~~~~~~~~~~- 

Guitar 2 
D---------------------------------------------------| 
A------12-13-15-13-15---t17----t15----t18----t17~~~-| 
F-12p7----------------7-----h7-----h7-----h9--------| 
C---------------------------------------------------| 
G---------------------------------------------------| 
C---------------------------------------------------| 

                                                                   

Guitar 2 (Fade Out) 
D-------------------------------------------------| 
A-13p10t15/17p10h13p10t15/17p10t15p10-13p10-12p10-| 
F-------------------------------------------------| 
C-------------------------------------------------| 
G-------------------------------------------------| 
C-------------------------------------------------| 

                                                                   

Guitar 2 
D----------------------------------------------| 
A-12p8-t15/17t20p12p8-t15/17p8-t18p8-17p8-15p8-| 
F----------------------------------------------| 
C----------------------------------------------| 
G----------------------------------------------| 
C----------------------------------------------| 

                                                                   

Guitar 2 
D---------------------------t13-------------------| 
A-10p6-t15/17p6-10p6-t13/15-----t13p6-t12p6-t13p6-| 
F-------------------------------------------------| 
C-------------------------------------------------| 
G-------------------------------------------------| 
C-------------------------------------------------| 

                                                                   

Guitar 2 
D---------------------------------------------------| 
A------12-13-15-13-15---t17----t15----t18----t17~~~-| 
F-12p7----------------7-----h7-----h7-----h9--------| 
C---------------------------------------------------| 
G---------------------------------------------------| 
C---------------------------------------------------| 
 
		  

See also:

tabs The Beatles - And i love her(guitar full version) tabs The Cranberries - Zombie tabs The Beatles - All You Need Is Love Acoustic tabs Eric Clapton - Hey, Hey tabs Coldplay - In My Place tabs Santana - Europa
e-chords

Other versions:

tabs Bury Tomorrow - Portraits
auto scroll beats size up size down change color hide chords drawings
tab show chords e-chords YouTube Clip e-chords hide all tabs e-chords go to top tab

share