Buddy Holly

home > Buddy Holly

I'm Gonna Love You Too Tab

Buddy Holly

Difficulty: nolevelnolevel

by paulantunes

tuner correct add songbook print version text version save to e-mail
chordsukulelecavacokeyboardtabbassdrumsharmonicsflute Guitar Pro
chords

I'm Gonna Love You Too

Year: 1958 -

(J. Mauldin-N. Petty-N. Sulavan)

  		



Gtr I (E A D G B E) - 'Buddy Holly - Acoustic Guitar ' 
Gtr II (E A D G B E) - 'Buddy Holly - Electric Guitar ' 


 Intro 
  Q=184 
  N.C. 
 4/4 
  Gtr II 
   a  E  E  E  E  E  E  E  E   E E E E E E E E 
|-11s12-12-12-10-10--9--9--9-|-7-7-7-5-5-4-4-4-| 
|-13s14-14-14-12-12-10-10-10-|-9-9-9-7-7-5-5-5-| 
|----------------------------|-----------------| 
|----------------------------|-----------------| 
|----------------------------|-----------------| 
|----------------------------|-----------------| 


                    A  E               E7 
  E E E E E E E E   Q  E E +E  E E E   E E E E E E E E 
|-2-2-2-0-0-0-0-0-|----0-0-(0)-0-0-0-|---------------0-| 
|-3-3-3-2-2-2-0-0-|-2--0-0-(0)-0-0-0-|-3-3-3-3-3-3-3---| 
|-----------------|-2--1-1-(1)-1-1-1-|-1-1-1-1-1-1-1---| 
|-----------------|-2--2-2-(2)-2-2-2-|-2-2-2-2-2-2-2---| 
|-----------------|-0--2-2-(2)-2-2-2-|-2-2-2-2-2-2-2---| 
|-----------------|----0-0-(0)-0-0-0-|-0-0-0-0-0-0-0---| 


  A      E        A       E        A      E        A       E 
  Gtr I 
  Q  E E Q  E E   Q   E E Q  E E   Q  E E Q  E E   Q   E E Q  E E 
  |  | | |  | |   |   | | |  | |   |  | | |  | |   |   | | |  | | 
  /  / / /  / /   /   / / /  / /   /  / / /  / /   /   / / /  / / 

  Gtr II 
  Q  Q   Q  Q     E E Q   Q  Q     Q  Q   Q  Q     E E Q   Q  E E 
|---------------|------------0---|---------------|-----------------| 
|----2---0--0---|---2-2---0--0---|-2--2---0--0---|---x-----0--0-0--| 
|----2---1--1---|---2-2---1--1---|-2--2---1--1---|---x-2---1--1-1--| 
|----2---2--2---|---2-2---2--2---|-2--2---2--2---|-2---2---2--2-2--| 
|-0------2------|-0-------2------|-0--0---2--2---|-0---------------| 
|--------0------|---------0------|--------0--0---|-----------------| 


  A      E        A      E        A      D        A      E 
  Q  E E Q  E E   Q  E E Q  E E   Q  E E Q  E E   Q  E E Q  E E 
  |  | | |  | |   |  | | |  | |   |  | | |  | |   |  | | |  | | 
  /  / / /  / /   /  / / /  / /   /  / / /  / /   /  / / /  / / 

                                                     PM-----| 
  Q  Q   Q  Q     Q  Q   Q  Q     Q  Q   Q  Q     Q  Q   Q  Q 
|---------------|---------------|---------------|----------------|| 
|----2------0---|----2------0---|--------3--3---|----------------|| 
|----2------1---|----2------1---|-2--2---2--2---|-2--------------|| 
|----2------2---|----2------2---|-2--2---0--0---|-2--------------|| 
|-0-------------|-0-------------|-0--0----------|-0--------------|| 
|--------0------|--------0------|---------------|----0---2--4----|| 


 1st & 4th Verses 
  $ 
  A               E                                A 
  Q  E E Q  E E   Q   E E Q  E E   E E Q   Q  Q    Q  E E Q  E E 
  |  | | |  | |   |   | | |  | |   | | |   |  |    |  | | |  | | 
  /  / / /  / /   /   / / /  / /   / / /   /  /    /  / / /  / / 

  PM-----------------------------------------------------------| 
  Q  E E Q  E E   E E Q   Q  E E   Q   E E Q  Q    Q  E E Q  E E 
|---------------|----------------|---------------|----------------| 
|---------------|----------------|---------------|----------------| 
|---------------|----------------|------------1--|----------------| 
|----2-2----2-2-|---2-2------2-2-|-----2-2----2--|----2-2----2-0--| 
|-0-------------|---------2------|---------2-----|-0--------------| 
|--------0------|-0--------------|-0-------------|--------0-------| 


  E                                  A      D         A 
  Q   E E Q  E E   Q   E E +E E Q    Q  Q   E E Q     Q   E E +E E Q 
  |   | | |  | |   |   | |  | | |    |  |   | | |     |   | |  | | | 
  /   / / /  / /   /   / /  / / /    /  /   / / /     /   / /  / / / 

  PM-----------------------------------------------------------------| 
  E E Q   Q  E E   E E Q    Q   Q    Q  E E Q   E E   E E E E  E E E E 
|----------------|-----------------|----------------|-------------------|| 
|----------------|-----------------|----------------|-------------------|| 
|----------------|-----------------|--------------0-|-------------------|| 
|---2-2------2-2-|---2-2-----------|----2-2-0---0---|---2---------------|| 
|---------2------|-----------------|-0--------------|-0-----0----0---0--|| 
|-0--------------|-0--------2---3--|----------------|-----0----2---4----|| 


 2nd & 5th Verses 
  A               E                                A 
  Q  E E Q  E E   Q  E E Q  E E   E E Q   Q  Q     Q  E E Q  E E 
  |  | | |  | |   |  | | |  | |   | | |   |  |     |  | | |  | | 
  /  / / /  / /   /  / / /  / /   / / /   /  /     /  / / /  / / 

  PM-----------------------------------------------------------| 
  Q  E E Q  E E   Q  Q   Q  Q     Q   E E Q  E E   Q  E E Q  E E 
|---------------|---------------|----------------|----------------| 
|---------------|---------------|----------------|----------------| 
|---------------|-----------1---|-------1--------|----------------| 
|----2-2----2-0-|----2------2---|-----2-2----2-0-|----2-2----2-0--| 
|-0-------------|--------2------|---------2------|-0--------------| 
|--------0------|-0-------------|-0--------------|--------0-------| 


  E                                  A     D         A 
  Q   E E Q  E E   Q  E E +E E Q     Q  Q  E E Q     Q  E E +E E Q 
  |   | | |  | |   |  | |  | | |     |  |  | | |     |  | |  | | | 
  /   / / /  / /   /  / /  / / /     /  /  / / /     /  / /  / / / 

  PM-------------------------------------------------------------| 
  E E Q   Q  Q     Q  E E  Q   E E   Q  Q  Q   E E   Q  E E  Q   Q 
|----------------|-----------------|---------------|-----------------|| 
|----------------|-----------------|---------------|-----------------|| 
|----------------|-----------------|-----------2-0-|------0----------|| 
|---2-2------2---|----2-2------2-0-|----2--0-------|----2------------|| 
|---------2------|---------2-------|-0-------------|-0---------------|| 
|-0--------------|-0---------------|---------------|---------4---2---|| 


 Bridge 
  E                                      A 
  Q  E E +E  E Q     Q   E E +Q    E E   Q  E E +E  E E E   Q  Q  E E E E 
  |  | |  |  | |     |   | |  |    | |   |  | |  |  | | |   |  |  | | | | 
  /  / /  /  / /     /   / /  /    / /   /  / /  /  / / /   /  /  / / / / 

  Q  E E +E  E E E   E E E E +E  E E E   Q  E E +Q    Q     Q  Q  E E Q 
|----0-0-(0)-0-0-0-|-0-0-0-0-(0)-0---0-|------------------|----------------| 
|----0-0-(0)-0-0-0-|-0-0-0-3-(3)-3-3---|----2-2-(2)---2---|----2--2-2-2----| 
|----1-1-(1)-1-1-1-|-1-1-1-1-(1)-1-1---|----2-2-(2)---2---|----2--2-2-2----| 
|----2-2-(2)-2-2-2-|-2-2-2-2-(2)-2-2---|----2-2-(2)---2---|-2--2--2-2-2----| 
|------------------|-------------------|-0----------------|-0--------------| 
|-0----------------|-------------------|------------------|----------------| 


                            To Coda 
  D                              E 
  Q  E E +Q  E E   Q  E E +Q   E E    Q  Q  E E E E   +E E E E Q  Q 
  |  | |  |  | |   |  | |  |   | |    |  |  | | | |    | | | | |  | 
  /  / /  /  / /   /  / /  /   / /    /  /  / / / /    / / / / /  / 

  Q  E E  Q  E E   Q  Q    E E E E    Q  Q  Q   Q      Q   Q   Q  Q 
|----2-2-----2-2-|----2----------0--|----0----------|----------------|| 
|----3-3-----3-3-|----3------3-3-0--|----0----------|----------------|| 
|----2-2-----2-2-|----2------2-2----|----1----------|------1---------|| 
|-0-------0------|-0-------0---0----|----2------2---|------2---------|| 
|----------------|------------------|-----------2---|------2---------|| 
|----------------|------------------|-0-----0-------|--0-------2--4--|| 


 3rd Verse 
  A               E                                A 
  Q  E E Q  E E   Q   E E Q  E E   E E Q   Q  Q    Q  E E Q  E E 
  |  | | |  | |   |   | | |  | |   | | |   |  |    |  | | |  | | 
  /  / / /  / /   /   / / /  / /   / / /   /  /    /  / / /  / / 

  PM-----------------------------------------------------------| 
  Q  E E Q  E E   E E Q   Q  E E   Q   E E Q  Q    Q  E E Q  E E 
|---------------|----------------|---------------|----------------| 
|---------------|----------------|---------------|----------------| 
|---------------|----------------|------------1--|----------------| 
|----2-2----2-2-|---2-2------2-2-|-----2-2----2--|----2-2----2-0--| 
|-0-------------|---------2------|---------2-----|-0--------------| 
|--------0------|-0--------------|-0-------------|--------0-------| 


  E                                  A      D         A 
  Q   E E Q  E E   Q   E E +E E Q    Q  Q   E E Q     Q   E E +E E Q 
  |   | | |  | |   |   | |  | | |    |  |   | | |     |   | |  | | | 
  /   / / /  / /   /   / /  / / /    /  /   / / /     /   / /  / / / 

  PM-----------------------------------------------------------------| 
  E E Q   Q  E E   E E Q    Q   Q    Q  E E Q   E E   E E E E  E E E E 
|----------------|-----------------|----------------|-------------------|| 
|----------------|-----------------|----------------|-------------------|| 
|----------------|-----------------|--------------0-|-------------------|| 
|---2-2------2-2-|---2-2-----------|----2-2-0---0---|---2---------------|| 
|---------2------|-----------------|-0--------------|-0-----0----0---0--|| 
|-0--------------|-0--------2---3--|----------------|-----0----2---4----|| 


   Interlude 
    A      E        A       E        A      E        A       E 
    Q  E E Q  E E   Q   E E Q  E E   Q  E E Q  E E   Q   E E Q  E E 
    |  | | |  | |   |   | | |  | |   |  | | |  | |   |   | | |  | | 
    /  / / /  / /   /   / / /  / /   /  / / /  / /   /   / / /  / / 

    Q  Q   Q  Q     E E Q   Q  Q     Q  Q   Q  Q     E E Q   Q  E E 
||----------------|------------0---|---------------|----------------| 
||o----2---0--0---|---2-2---0--0---|-2--2---0--0---|---x-----0--0-0-| 
||-----2---1--1---|---2-2---1--1---|-2--2---1--1---|---x-2---1--1-1-| 
||-----2---2--2---|---2-2---2--2---|-2--2---2--2---|-2---2---2--2-2-| 
||o-0------2------|-0-------2------|-0--0---2--2---|-0--------------| 
||---------0------|---------0------|--------0--0---|----------------| 


                                 1. 
  A      E        A      E        A      D 
  Q  E E Q  E E   Q  E E Q  E E   Q  E E Q  E E 
  |  | | |  | |   |  | | |  | |   |  | | |  | | 
  /  / / /  / /   /  / / /  / /   /  / / /  / / 

  Q  Q   Q  Q     Q  Q   Q  Q     Q  Q   Q  Q 
|---------------|---------------|---------------| 
|----2------0---|----2------0---|--------3--3---| 
|----2------1---|----2------1---|-2--2---2--2---| 
|----2------2---|----2------2---|-2--2---0--0---| 
|-0-------------|-0-------------|-0--0----------| 
|--------0------|--------0------|---------------| 


                   2. 
                                      D.S. al Coda 
  A    E            A      D        A      E 
  Q  E E Q  E E     Q  E E Q  E E   Q  E E Q  E E 
  |  | | |  | |     |  | | |  | |   |  | | |  | | 
  /  / / /  / /     /  / / /  / /   /  / / /  / / 

     PM-----|                          PM-----| 
  Q  Q   Q  Q       Q  Q   Q  Q     Q  Q   Q  Q 
|----------------||---------------|----------------|| 
|---------------o||--------3--3---|----------------|| 
|-2--------------||-2--2---2--2---|-2--------------|| 
|-2--------------||-2--2---0--0---|-2--------------|| 
|-0-------------o||-0--0----------|-0--------------|| 
|----0---2--4----||---------------|----0---2--4----|| 


  & 
  E 
  Q  Q  E E E E   +E E E E Q   Q 
  |  |  | | | |    | | | | |   | 
  /  /  / / / /    / / / / /   / 

  Q  Q  E E Q      E E E E E E Q 
|-0--0--0-0-0---|--0-0-0-0-0-0-0--|| 
|-0--0--0-0-0---|--0-0-0-0-0-0-0--|| 
|-1--1--1-1-1---|--1-1-1-1-1-1-1--|| 
|-2--2--2-2-2---|--2-2-2-2-2-2-2--|| 
|-2--2--2-2-2---|--2-2-2-2-2-2-2--|| 
|-0--0--0-0-0---|--0-0-0-0-0-0-0--|| 


 6th Verse 
  A               E                                A 
  Q  E E Q  E E   Q   E E Q  E E   E E Q   Q  Q    Q  E E Q  E E 
  |  | | |  | |   |   | | |  | |   | | |   |  |    |  | | |  | | 
  /  / / /  / /   /   / / /  / /   / / /   /  /    /  / / /  / / 

  PM-----------------------------------------------------------| 
  Q  E E Q  E E   E E Q   Q  E E   Q   E E Q  Q    Q  E E Q  E E 
|---------------|----------------|---------------|----------------| 
|---------------|----------------|---------------|----------------| 
|---------------|----------------|------------1--|----------------| 
|----2-2----2-2-|---2-2------2-2-|-----2-2----2--|----2-2----2-0--| 
|-0-------------|---------2------|---------2-----|-0--------------| 
|--------0------|-0--------------|-0-------------|--------0-------| 


  E                                  A      D        A      E 
  Q   E E Q  E E   Q   E E +E E Q    Q  E E Q  E E   Q  E E E E E E 
  |   | | |  | |   |   | |  | | |    |  | | |  | |   |  | | | | | | 
  /   / / /  / /   /   / /  / / /    /  / / /  / /   /  / / / / / / 

  PM------------------------------------------------------------| 
  E E Q   Q  E E   E E Q    Q   Q    Q  E E Q  E E   Q  E E Q   Q 
|----------------|-----------------|---------------|-----------------|| 
|----------------|-----------------|---------------|-----------------|| 
|----------------|-----------------|------0------0-|-----------------|| 
|---2-2------2-2-|---2-2-----------|----2---0--0---|----2p0-----2----|| 
|---------2------|-----------------|-0-------------|-0---------------|| 
|-0--------------|-0--------2---3--|---------------|--------0--------|| 


 Outro 
  A     D        A       E        A     D 
  Q  Q  Q  E E   E E E E E E Q    Q  Q  Q  Q 
  |  |  |  | |   | | | | | | |    |  |  |  | 
  /  /  /  / /   / / / / / / /    /  /  /  / 

  PM-------------| 
  Q  Q  Q  Q     E E Q   Q   Q    Q  Q  Q  Q 
|--------------|----------------|-------------| 
|--------------|---2-2-------0--|----2-----3--| 
|--------------|---2-2-------1--|----2-----2--| 
|----2--0--0---|-----2-------2--|----2--0--0--| 
|-0------------|-0--------------|-0-----------| 
|--------------|---------0------|-------------| 


  A     E        A     D              A 
  Q  Q  E E Q    Q  Q  E E Q    H     H      +W 
  |  |  | | |    |  |  | | |    |     |       | 
  /  /  / / /    /  /  / / /    o     /       / 

  Q  Q  Q   Q    Q  Q  Q   Q    Q  Q  H      +W 
|--------------|-----------2--|------------|--------*| 
|-----------0--|-----------3--|------------|--------*| 
|----2------1--|----2------2--|----2-------|--------*| 
|----2------2--|-2--2--0------|-2--2--2----|-(2)----*| 
|-0------------|-0------------|-0-----0----|-(0)----*| 
|-------0------|--------------|------------|--------*| 


Duration Legend 
--------------- 
W - whole; H - half; Q - quarter; E - 8th; S - 16th; T - 32nd; X - 64th; a - acciaccatura 
+ - note tied to previous; . - note dotted; .. - note double dotted 
Uncapitalized letters represent notes that are staccato (1/2 duration) 
Irregular groupings are notated above the duration line 
Duration letters will always appear directly above the note/fret number it represents the 
duration for.  Duration letters with no fret number below them represent rests.  Multi- 
bar rests are notated in the form Wxn, where n is the number of bars to rest for.  Low 
melody durations appear below the staff 

Tablature Legend 
---------------- 
 h   - hammer-on 
 p   - pull-off 
 b   - bend 
 pb  - pre-bend 
 r   - bend release (if no number after the r, then release immediately) 
 /\  - slide into or out of (from/to "nowhere") 
 s   - legato slide 
 S   - shift slide 
  - natural harmonic 
n  - artificial harmonic 
n(n) - tapped harmonic 
 ~   - vibrato 
 tr  - trill 
 T   - tap 
 TP  - trem. picking 
 PM  - palm muting 
\n/  - tremolo bar dip; n = amount to dip 
 \n  - tremolo bar down 
 n/  - tremolo bar up 
/n\  - tremolo bar inverted dip 
 =   - hold bend; also acts as connecting device for hammers/pulls 
 <>  - volume swell (louder/softer) 
 x   - on rhythm slash represents muted slash 
 o   - on rhythm slash represents single note slash 

Misc Legend 
----------- 
 |  - bar 
||  - double bar 
||o - repeat start 
o|| - repeat end 
*|  - double bar (ending) 
 :  - bar (freetime) 
 $  - Segno 
 &  - Coda 
Tempo markers -  = BPM(8/16=s8/s16), where s8 = swing 8ths, s16 = swing 16ths 
	  

Search Paypal
auto scroll beats size up size down change color hide chords drawings
tab show chords e-chords YouTube Clip e-chords hide all tabs e-chords go to top tab