Buckcherry

home > Buckcherry

Dreamin' Of You Tab

Buckcherry

Difficulty: nolevelnolevel

by marcnagel

tuner correct add songbook print version text version save to e-mail
chordsukulelecavacokeyboardtabbassdrumsharmonicsflute Guitar Pro
chords

Dreamin' Of You

  		

INTRO / Intro to all Verses: 
d#|---------------------------------------------------------------| 
A#|---------------------------------------------------------------| 
F#|-------4--4-----4--4-----4--4-----4--4-------------------------| 
C#|------4--4-----4--4-----4--4-----4--4--------------------------| 
G#|----2--------2--------2--------2-------------------------------| 
D#|---------------------------------------------------------------| 





You will strum these notes throughout the song: Only the bass notes will change 
d#|-----------| 
A#|-----------| 
F#|-----4-----| 
C#|-----4-----| 
G#|-----------| 
D#|-----------| 

I do not have the time to write every part, so I will write the notes for each section.  
You will need to decipher the strumming pattern, which is easy 

VERSE 
d#|---------------------------------------------------------------| 
A#|---------------------------------------------------------------| 
F#|----4--------4--------4--------x---2---------------------------| x2 
C#|----4--------4--------4--------4---4---------------------------| 
G#|----2--------x--------x--------2---x---------------------------| 
D#|-------------4--------2--------0---2---------------------------| 






BRIDGE 
d#|---------------------------------------------------------------| 
A#|---------------------------------------------------------------| 
F#|---4--------4--------4--------4--------------------------------| x2 
C#|---4--------4--------4--------4--------------------------------| 
G#|---x--------x--------x--------x--------------------------------| 
D#|---4--------2--------4--------2--------------------------------| 





Chorus 
d#|----------------| 
A#|----------------| 
F#|---x---4---4----| 
C#|---4---4---4----| x3 
G#|---2---x---x----| 
D#|---0---2---4----| 

d#|--------------| 
A#|--------------| 
F#|-x---4---4----| 
C#|-4---4---4----| 
G#|-2---x---2----| 
D#|-0---2--------| 




SOLO: Figured it out myself :) 

d#|---------------------------------------------------------------| 
A#|---------------------------------------------------------------| 
F#|---------------------------------------------------------------| 
C#|---------------------------------------------------------------| 
G#|--6--4--2--4-----2------------6--4--2--4-----------------------| 
D#|--------------2----------------------------2-------------------| 

d#|---------------------------------------------------------------| 
A#|---------------------------------------------------------------| 
F#|---------------------------------------------------------------| 
C#|------------------------------------4--3-----------------------| 
G#|--2--4--6------4--6-----------4--6--------4--------------------| 
D#|-----------4---------------------------------------------------| 

 
	  

Search Paypal
auto scroll beats size up size down change color hide chords drawings
tab show chords e-chords YouTube Clip e-chords hide all tabs e-chords go to top tab