Bruce Dickinson

Metal Heart(Solo) Tab

Bruce Dickinson

Difficulty: ExpertExpert

by xxDiogo+Brunoxx

tuner correct add songbook print version text version save to e-mail
chordsukulelecavacokeyboardtabbassdrumsharmonicsflute Guitar Pro
close

there isn't a video lesson for this song

chords

Metal Heart(Solo)

  		||---------------------------| 
||---------------------------| 
||---------------------------| 
||--------------------7-9-10-| 
||--7----------7-9-10--------| 
||---------------------------| 
 
 
                                                           
---------------------------------------------------------| 
---------------------------------------------------------| 
--8-9-11-9-8-9-9-9-9-9-9-9-9-9-9-9-9-9-9-9-9-9-9-9-9-9-9-| 
---------------------------------------------------------| 
---------------------------------------------------------| 
---------------------------------------------------------| 
 
 
                                                                  
-------------------------------------|--------------------------| 
-------------------------------8--10-|--10r-------10--8--7--8-7-| 
--9p8----8h9p8----8h9p8----8-9-------|--------------------------| 
------10-------10-------10-----------|--------------------------| 
-------------------------------------|--------------------------| 
-------------------------------------|--------------------------| 
 
 
                                                                             
-----8p7----7h8p7----7h8p7----7-8-10-|--8-7-8-7----7-----------------------| 
---------10-------10-------10--------|----------10---10-8-10-8-7-8-7-------| 
--9----------------------------------|-------------------------------9-8-9-| 
-------------------------------------|-------------------------------------| 
-------------------------------------|-------------------------------------| 
-------------------------------------|-------------------------------------| 
 
 
                                                                              
----------------------|----------------------|------------------------------| 
----------------------|--15r---15~-----------|------------------------------| 
--12r---12------------|----------------------|----12----10--12------10------| 
----------------------|----------------------|------------------12------13--| 
----------------------|----------------------|------------------------------| 
----------------------|----------------------|------------------------------| 
 
 
                                                            
--------------------------|-------------------------------| 
--------------------------|-------------------------------| 
--------------------------|-------------------------------| 
--10~-------------10--12--|--12h13p12-13p12h13p12---12r---| 
--------------10----------|-------------------------------| 
--------------------------|-------------------------------| 
 
 
                                                       
----------------------|------------------------------| 
----------------------|------------------------------| 
----------------------|----12----10--12------10------| 
--10------------------|------------------12------13--| 
--------10/-----------|------------------------------| 
----------------------|------------------------------| 
 
 
                                                            
--------------------------|-------------------------------| 
--------------------------|-------------------------------| 
--------------------------|-------------------------------| 
--10~-------------10--12--|--12h13p12-13p12h13p12---12r---| 
--------------10----------|-------------------------------| 
--------------------------|-------------------------------| 
 
 
                                                                          
--------------------------|----------------------|----------------------| 
--------------------------|----------------------|----------------------| 
--------------------10b---|--10b-----------12b---|--10------------10b---| 
--10------12--13----------|----------------------|----------------------| 
--------------------------|----------------------|----------------------| 
--------------------------|----------------------|----------------------| 
 
 
                                                                               
------------------------------------------|----------------------------------| 
------------------------------------------|----------------------------------| 
--8h10p8h10p8h10p8h10p8h10p8h10p8h10p8h10p|--8/7h8p7/5h7p5/4h5p4---4h5p4---4h| 
------------------------------------------|----------------------7-------7---| 
------------------------------------------|----------------------------------| 
------------------------------------------|----------------------------------| 
 
 
                                                                               
--------------------------|--12----------------------12----------------------| 
--------------------------|-----13----------12-13-15----13----------12-13-15-| 
--5p4---4h5p4-------------|--------14----14----------------14----14----------| 
------7-------7--5~-------|-----------14----------------------14-------------| 
--------------------------|--------------------------------------------------| 
--------------------------|--------------------------------------------------| 
 
 
                                                    
--13----------------------13-------------------13-| 
-----15----------------15----15-------------15----| 
--------16----16----16----------16----16----------| 
-----------17----17----------------17----17-------| 
--------------------------------------------------| 
--------------------------------------------------| 
 
 
                                                    
--12----------------------12----------------------| 
-----13----------12-13-15----13----------12-13-15-| 
--------14----14----------------14----14----------| 
-----------14----------------------14-------------| 
--------------------------------------------------| 
--------------------------------------------------| 
 
 
                                                    
--10----------------------10----------------------| 
-----12----------10-12-13----12----------10-12-13-| 
--------12----12----------------12----12----------| 
-----------12----------------------12-------------| 
--------------------------------------------------| 
--------------------------------------------------| 
 
 
                                                
--10-13--13-------------10-12--12-------------| 
------------10-12-10-12-----------12-13-12-13-| 
----------------------------------------------| 
----------------------------------------------| 
----------------------------------------------| 
----------------------------------------------| 
 
 
                                                
--10-13--13-------------10-12--12-------------| 
------------10-12-10-12-----------12-13-12-13-| 
----------------------------------------------| 
----------------------------------------------| 
----------------------------------------------| 
----------------------------------------------| 
 
 
                                                    
--10-13-10-13-------------10-12-10-12-------------| 
--------------10-12-10-12-------------12-13-12-13-| 
--------------------------------------------------| 
--------------------------------------------------| 
--------------------------------------------------| 
--------------------------------------------------| 
 
 
                                                                                 
-------------------------------------------------------------------------------- 
--13p12p10-13p12p10-13p12p10-13p12p10-15p13p12-15p13p12-17p15p13-17p15p13-18p17p 
-------------------------------------------------------------------------------- 
-------------------------------------------------------------------------------- 
-------------------------------------------------------------------------------- 
-------------------------------------------------------------------------------- 
 
 
                                                    
--------------------------------------------------| 
--20-18-16----------------------------------------| 
-----------19-17-16-------------------------------| 
--------------------18-17-15----------------------| 
-----------------------------18-17-15-------------| 
--------------------------------------19-17-15-14-| 
 
 
                                              
--------------------------------------------| 
-----------------------------------------13-| 
--------------------------------------12----| 
--------------------16-17-19-17----14-------| 
--------14-15-17-18-------------------------| 
--15-17-------------------------------------| 
 
 
                                                    
--12-15-12----------------12-15-12----------------| 
-----------13----------13----------13----------13-| 
--------------12----12----------------12----12----| 
-----------------13----------------------14-------| 
--------------------------------------------------| 
--------------------------------------------------| 
 
 
                                                                         
--12-15-12----------------12-15-12----------|--------------------------| 
-----------13----------13----------13-------|--------------------------| 
--------------12----12----------------12----|--11----12----11----12----| 
-----------------13-------------------------|--------------------------| 
--------------------------------------------|--------------------------| 
--------------------------------------------|--------------------------| 
 
 
                                                                                 
--------------------------------|----------------------------------------------| 
--------------------------------|----------------------------------------------| 
--11----12--11--12--11--12--11--|--12--11--12-11-12-11-12-11-12-11-12-11-12-11-| 
--------------------------------|----------------------------------------------| 
--------------------------------|----------------------------------------------| 
--------------------------------|----------------------------------------------| 
 
 
                                                         
------------------------------|------------------------| 
------------------------------|------------------------| 
--12--11--12--11--12----11----|--12----11----12~-------| 
------------------------------|------------------------| 
------------------------------|------------------------| 
------------------------------|------------------------| 
 
 
                                                     
------------------------|--------------------------| 
------------------------|--------------------------| 
----------------10------|--------------------------| 
------------12------13--|--10~-------------10--12--| 
------------------------|--------------10----------| 
------------------------|--------------------------| 
 
 
                                                            
-------------------------------|--------------------------| 
-------------------------------|--------------------------| 
-------------------------------|--------------------10b---| 
--12h13p12-13p12h13p12---12r---|--10------12--13----------| 
-------------------------------|--------------------------| 
-------------------------------|--------------------------| 
 
 
                                               
----------------------|----------------------| 
----------------------|----------------------| 
--10b-----------12b---|--10------------10b---| 
----------------------|----------------------| 
----------------------|----------------------| 
----------------------|----------------------| 
 
 
                                                                        
-----------------------------------|----------------------------------| 
-----------------------------------|----------------------------------| 
--10p8/7h8p7/5h7p5/4h5p4---4h------|----------------------------------| 
-------------------------7---7-4h5-|--4h5p4h5p4h5p4h5p4h5p4h5p4h5p4h5-| 
-----------------------------------|----------------------------------| 
-----------------------------------|----------------------------------| 
 
 
                                    
----------------------------------| 
----------------------------------| 
--8p7h8p7h8p7h8p7h8p7h8p7h8p7h8p7-| 
----------------------------------| 
----------------------------------| 
----------------------------------| 
 
 
                                                                             
--11p10p8h10h11p10p8h10h11p10p8h10h11p10p8-10-|--11-13-15-18-18b-----------| 
----------------------------------------------|----------------------------| 
----------------------------------------------|----------------------------| 
----------------------------------------------|----------------------------| 
----------------------------------------------|----------------------------| 
----------------------------------------------|----------------------------| 

	  

auto scroll beats size up size down change color hide chords drawings
tab show chords e-chords YouTube Clip e-chords hide all tabs e-chords go to top tab

share with facebook

Search Paypal