Bruce Dickinson

home > Bruce Dickinson

Arc of space (ver. 2) Tab

Bruce Dickinson

Difficulty: BeginnerBeginner

by ssppyy

tuner correct add songbook print version text version save to e-mail
chordsukulelecavacokeyboardtabbassdrumsharmonicsflute Guitar Pro
chords

Arc of space (ver. 2)

  		h = hammer on 
p = pull off 
/ = slide 
b = bend  
 
Am as vezes eh tocado assim: 
 
e|-0-0-0-0---0----- 
B|-1-1-1-1---0h1--- 
G|-2-2-2-2---2----- 
D|-2-2-2-2---2----- 
A|-0-0-0-0---0----- 
E|-0-0-0-0---0----- 
 
É sempre no comeco do canto, assim outras notas tambem que fazem desse tipo, 
é só ouvir e ver a hora. 
 
Introdução 
  
  Am  Am     G    D9    Am    Am   G     D9    Am  Am 
e|---------------------|---------------5------|-------| 
B|-5---5--6/8---6-5----|---5--5-6/8------6--5-|---3/5-| 
G|-------------------7-|----------------------|-------| 
D|---------------------|-7--------------------|-7-----| 
A|---------------------|----------------------|-------| 
E|---------------------|----------------------|-------| 
 
   D9        Am   D9           Am   G              G 
e|--------------|-----------------|--------------|-----------------------| 
B|--------------|-------5/7-------|-5------------|-----------------------| 
G|-7-7-7-4---5--|-7-7-7-----7--5--|---7--5-7p5---|-----5h7-5-------------| 
D|--------------|-----------------|------------7-|-5-7-------7-5---5-5/7-| 
A|--------------|-----------------|--------------|---------------7-------| 
E|--------------|-----------------|--------------|-----------------------| 
 
 
Am          G      D9     Am 
There, on a lonely desert hilltop  
 
    G        D9     Am 
The pilgrims huddle closer  
 
D             Am        D             Am 
Waiting for a sign, the coming silver shrine  
 
    C                      G                     
The arc of space and time  
 
 
Am            G        D9    Am 
Truth, oh, the truth is never clear  
 
   G     D9        Am 
Perhaps again next year  
 
    D          Am    D                 Am 
The hope lives on beneath the blazing sun  
 
C                   G               
One day you'll come  
 
 F      G     Am     F      G       Am 
e|------------------|-------------------- 
B|------------------|-------------------- 
G|------------------|-------------------- 
D|-3----------------|--3----------------- 
A|-3----3-2---------|--3----3-2--3-5-3--- 
E|-1-1------5-3-5---|--1-1--------------- 
 
F        G       Am 
  In my heart I reach you  
 
F        G        Am 
  In my heart I reach out to you  
 
F         G       Am        F       E 
  In my heart I touch the face of god  
 
       Em 
In my dreams somehow...  
 
 
Solo: 
 
e|------------------------------------------|---------------------------------------- 
B|------------------------------------------|-----0h3-----0h1-----5h7h8--8--8--8--8-- 
G|--1--1--1--2--0--2--4--4/5--5/7--5--4--0--|--2-------2-------2--------------------- 
D|------------------------------------------|---------------------------------------- 
A|------------------------------------------|---------------------------------------- 
E|------------------------------------------|---------------------------------------- 
 
e|----------8/7/5-----------7--7--8--8/10--10--8/7\8--8--5--7--7/8--8--8------------- 
B|--5--7/8---------8--7--5----------------------------------------------------------- 
G|----------------------------------------------------------------------------------- 
D|----------------------------------------------------------------------------------- 
A|----------------------------------------------------------------------------------- 
E|----------------------------------------------------------------------------------- 
 
e|--------------------------------|--------------|----------------------------------- 
B|--------------------------------|--------------|-------------------8------8--10---- 
G|--7--7--9--9/10--9--7--5--7--5--|--7/9--10--9--|--7------7--9--10-----10----------- 
D|--------------------------------|--------------|-----10---------------------------- 
A|--------------------------------|--------------|----------------------------------- 
E|--------------------------------|--------------|----------------------------------- 
 
e|--7-----7--9--10--|--10p9p7--10p9p7--10p9p7--10p9p7...---10---12---13-------------- 
B|----10------------|---------------------------------------------------------------- 
G|------------------|---------------------------------------------------------------- 
D|------------------|---------------------------------------------------------------- 
A|------------------|---------------------------------------------------------------- 
E|------------------|---------------------------------------------------------------- 
 
F        G       Am 
  In my heart I reach you  
 
F        G        Am 
  In my heart I reach out to you  
 
F         G       Am        F       E 
  In my heart I touch the face of god  
 
        Em  
It's all a dream...  
 
 
 
F        G       Am 
  In my heart I reach you  
 
F        G        Am 
  In my heart I reach out to you  
 
F         G       Am        F       E 
  In my heart I touch the face of god  
 
        Em  
It's all a dream, somehow...  
 
 
e|----------------- 
B|-5-6-3-5-1-3-0--- 
G|---------------1- 
D|----------------- 
A|----------------- 
E|----------------- 
 
 
Am            G        D9    Am 
Truth, oh, the truth is never clear  
 
   G     D9        Am 
Perhaps again next year  
 
    D9         Am    D9                Am 
The hope lives on beneath the blazing sun  
 
C                   G 
One day you'll come 
 
 
obs: eh minha primeira tab à ser enviada, qualquer erro me informem por favor. 
([email protected]) 
 
 
                                     spy.is de Itapetininga ;p~´ 

	  

Full key step upFull key step up
Half key step upHalf key step up
Half key step downHalf key step down
Full key step downFull key step down
Search Paypal
auto scroll beats size up size down change color hide chords drawings
tab show chords e-chords YouTube Clip e-chords hide all tabs e-chords go to top tab