Bring Me The Horizon

home > Bring Me The Horiz...

I Apologise If You Feel Something Tab

Bring Me The Horizon

Difficulty: nolevelnolevel

by robepoiel

tuner correct add songbook print version text version save to e-mail
chordsukulelecavacokeyboardtabbassdrumsharmonicsflute Guitar Pro
chords

I Apologise If You Feel Something

	  
Intro 

guitar 1 
e|----------------------| 
B|----------------------| 
G|-7----------------7---| 
D|-7----------------7---|  x2 
A|-5----------------5---| 
E|-5----------------5---| 

guitar 2 
e|------------------------------| 
B|-13---------------13----------| 
G|------------------------14----| 
D|----14-12-15---------15----14-| 
A|------------------------------| 
E|------------------------------| 

Verse 

         I saw you staring out of 
guitar 1 
e|------------------| 
B|------------------| 
G|-7----------------| 
D|-7----------------| 
A|-5----------------| 
E|-5----------------| 

guitar 2 
e|------------------| 
B|-13---------------| 
G|------------------| 
D|----14-12-15------| 
A|------------------| 
E|------------------| 

          your own abyss again 
guitar 1 
e|------------------| 
B|------------------| 
G|-7----------------| 
D|-7----------------| 
A|-5----------------| 
E|-5----------------| 

guitar 2 
e|-------------| 
B|-13----------| 
G|-------14----| 
D|----15----14-| 
A|-------------| 
E|-------------| 

           Waiting for something you're not 
guitar 1 
e|------------------| 
B|------------------| 
G|-7----------------| 
D|-7----------------| 
A|-5----------------| 
E|-5----------------| 

guitar 2 
e|------------------| 
B|-13---------------| 
G|------------------| 
D|----14-12-15------| 
A|------------------| 
E|------------------| 

           sure even still exists 
guitar 1 
e|------------------| 
B|------------------| 
G|-7----------------| 
D|-7----------------| 
A|-5----------------| 
E|-5----------------| 

guitar 2 
e|-------------| 
B|-13----------| 
G|-------14----| 
D|----15----14-| 
A|-------------| 
E|-------------| 

           Don't be afraid to wonder 
guitar 1 
e|------------------| 
B|------------------| 
G|-7----------------| 
D|-7----------------| 
A|-5----------------| 
E|-5----------------| 

guitar 2 
e|------------------| 
B|-13---------------| 
G|------------------| 
D|----14-12-15------| 
A|------------------| 
E|------------------| 

           don't be afraid to be scared 
guitar 1 
e|------------------| 
B|------------------| 
G|-7----------------| 
D|-7----------------| 
A|-5----------------| 
E|-5----------------| 

guitar 2 
e|-------------| 
B|-13----------| 
G|-------14----| 
D|----15----14-| 
A|-------------| 
E|-------------| 

    It should never be a prison. 
guitar 1  
e|------------------| 
B|------------------| 
G|-7----------------| 
D|-7----------------| 
A|-5----------------| 
E|-5----------------| 

guitar 2 
e|-------------| 
B|-13----------| 
G|-------14----| 
D|----15----14-| 
A|-------------| 
E|-------------| 

So I apologise... 

if you feel something        But love is all we have 
guitar 1 
e|---------------------------------|----------------|----------------| 
B|---------------------------------|----------------|----------------| 
G|-7-7-7-7-7-7-7-7-7-7-7-7-7-7-7-7-|----------------|----------------| 
D|-7-7-7-7-7-7-7-7-7-7-7-7-7-7-7-7-|8-8-8-8-8-8-8-8-|5-5-5-5-5-5-5-5-| 
A|-5-5-5-5-5-5-5-5-5-5-5-5-5-5-5-5-|8-8-8-8-8-8-8-8-|5-5-5-5-5-5-5-5-| 
E|-5-5-5-5-5-5-5-5-5-5-5-5-5-5-5-5-|6-6-6-6-6-6-6-6-|3-3-3-3-3-3-3-3-| 

guitar 2 
e|--------------------------------------------| 
B|-13-----------------------------13----------| 
G|--------------------------------------14----| 
D|----14-12-15-----------------------15----14-| 
A|--------------------------------------------| 
E|--------------------------------------------| 

guitar 3 (fiddle) 
e|--------------------| 
B|--------------------| 
G|--------------------| 
D|-15-14--------------| 
A|-------15-12-8-7-5--| 
E|--------------------| 

feel something, I know 
guitar 1 
e|---------------------------------|----------------|----------------| 
B|---------------------------------|----------------|----------------| 
G|-7-7-7-7-7-7-7-7-7-7-7-7-7-7-7-7-|----------------|----------------| 
D|-7-7-7-7-7-7-7-7-7-7-7-7-7-7-7-7-|8-8-8-8-8-8-8-8-|5-5-5-5-5-5-5-5-| 
A|-5-5-5-5-5-5-5-5-5-5-5-5-5-5-5-5-|8-8-8-8-8-8-8-8-|5-5-5-5-5-5-5-5-| 
E|-5-5-5-5-5-5-5-5-5-5-5-5-5-5-5-5-|6-6-6-6-6-6-6-6-|3-3-3-3-3-3-3-3-| 

guitar 2 
e|--------------------------------------------| 
B|-13-----------------------------13----------| 
G|--------------------------------------14----| 
D|----14-12-15-----------------------15----14-| 
A|--------------------------------------------| 
E|--------------------------------------------| 

Or if I steal something   please remember it is mine 
guitar 1 
e|---------------------------------|----------------|----------------| 
B|---------------------------------|----------------|----------------| 
G|-7-7-7-7-7-7-7-7-7-7-7-7-7-7-7-7-|----------------|----------------| 
D|-7-7-7-7-7-7-7-7-7-7-7-7-7-7-7-7-|8-8-8-8-8-8-8-8-|5-5-5-5-5-5-5-5-| 
A|-5-5-5-5-5-5-5-5-5-5-5-5-5-5-5-5-|8-8-8-8-8-8-8-8-|5-5-5-5-5-5-5-5-| 
E|-5-5-5-5-5-5-5-5-5-5-5-5-5-5-5-5-|6-6-6-6-6-6-6-6-|3-3-3-3-3-3-3-3-| 

guitar 2 
e|--------------------------------------------| 
B|-13-----------------------------13----------| 
G|--------------------------------------14----| 
D|----14-12-15-----------------------15----14-| 
A|--------------------------------------------| 
E|--------------------------------------------| 

guitar 3 (fiddle) 
e|--------------------| 
B|--------------------| 
G|--------------------| 
D|-15-14--------------| 
A|-------15-12-8-7-5--| 
E|--------------------| 

  Real something 
guitar 1 
e|-----------------|----------------|----------------|----------------| 
B|-----------------|----------------|----------------|----------------| 
G|-7-7-7-7-7-7-7-7-|----------------|----------------|----------------| 
D|-7-7-7-7-7-7-7-7-|7-7-7-7-7-7-7-7-|8-8-8-8-8-8-8-8-|5-5-5-5-5-5-5-5-| 
A|-5-5-5-5-5-5-5-5-|7-7-7-7-7-7-7-7-|8-8-8-8-8-8-8-8-|5-5-5-5-5-5-5-5-| 
E|-5-5-5-5-5-5-5-5-|5-5-5-5-5-5-5-5-|6-6-6-6-6-6-6-6-|3-3-3-3-3-3-3-3-| 

guitar 2 
e|--------------------------------------------| 
B|-13-----------------------------13----------| 
G|--------------------------------------14----| 
D|----14-12-15-----------------------15----14-| 
A|--------------------------------------------| 
E|--------------------------------------------| 

guitar 1 
e|---------------------------------|----------------|----------------| 
B|---------------------------------|----------------|----------------| 
G|-7-7-7-7-7-7-7-7-7-7-7-7-7-7-7-7-|----------------|----------------| 
D|-7-7-7-7-7-7-7-7-7-7-7-7-7-7-7-7-|8-8-8-8-8-8-8-8-|5-5-5-5-5-5-5-5-| 
A|-5-5-5-5-5-5-5-5-5-5-5-5-5-5-5-5-|8-8-8-8-8-8-8-8-|5-5-5-5-5-5-5-5-| 
E|-5-5-5-5-5-5-5-5-5-5-5-5-5-5-5-5-|6-6-6-6-6-6-6-6-|3-3-3-3-3-3-3-3-| 

guitar 2 
e|--------------------------------------------| 
B|-13-----------------------------13----------| 
G|--------------------------------------14----| 
D|----14-12-15-----------------------15----14-| 
A|--------------------------------------------| 
E|--------------------------------------------| 

guitar 3 (fiddle) 
e|--------------------| 
B|--------------------| 
G|--------------------| 
D|-15-14--------------| 
A|-------15-12-8-7-5--| 
E|--------------------| 

guitar 1 
e|-----------------|----------------|----------------|----------------| 
B|-----------------|----------------|----------------|----------------| 
G|-7-7-7-7-7-7-7-7-|----------------|----------------|----------------| 
D|-7-7-7-7-7-7-7-7-|7-7-7-7-7-7-7-7-|8-8-8-8-8-8-8-8-|5-5-5-5-5-5-5-5-| 
A|-5-5-5-5-5-5-5-5-|7-7-7-7-7-7-7-7-|8-8-8-8-8-8-8-8-|5-5-5-5-5-5-5-5-| 
E|-5-5-5-5-5-5-5-5-|5-5-5-5-5-5-5-5-|6-6-6-6-6-6-6-6-|3-3-3-3-3-3-3-3-| 

guitar 2 
e|--------------------------------------------| 
B|-13-----------------------------13----------| 
G|--------------------------------------14----| 
D|----14-12-15-----------------------15----14-| 
A|--------------------------------------------| 
E|--------------------------------------------| 

END 

guitar 1 
e|----------------------| 
B|----------------------| 
G|----------------------| 
D|----------------------| 
A|-5----------------5---| 
E|----------------------| 

guitar 1 
e|-----------------------------| 
B|-13--------------13----------| 
G|-----------------------14----| 
D|----14-12-15--------15----14-| 
A|-----------------------------| 
E|-----------------------------| 
	  

there isn't a video lesson for this song

request
Search Paypal
auto scroll beats size up size down change color hide chords drawings
tab show chords e-chords YouTube Clip e-chords hide all tabs e-chords go to top tab