Brenda

Visions

Brenda

tabs

by  IRONPOWER4EVER

save to print version add songbook text version e-mail correct tuner
chordsukulelecavacokeyboardtabbassdrumsharmonicaflute Guitar Pro
close

there isn't a video lesson for this song

chords

Visions

	  		From their Megalith EP 

Intro 

e|---------------------------------------------------------------------------| 
B|---------------------------------------------------------------------------| 
G|---------------------------------------------------------------------------| 
D|---------------------------------------------------------------------------| 
A|---------------------------------------------------------------------------| 
E|-6-6-6-6-6-6-6-6-6-6-6-6-6-6-6-6-6-6-6-6-6-6-6-6-6-6-6-6-6-6-6-6-----------| x2 

e|---------------------------------------------------------------------------| 
B|---------------------------------------------------------------------------| 
G|-----------------------------------------------------3-6-3-----------------| 
D|-----------------------------------------------3-3h6-----------------------| 
A|---------------4-------------6-----4-------4h6-----------------------------| 
E|-6-6-6-6-6-6-6---6-6-6-6-6-6---6-6---6-6-6---------------------------------| 


verse 1 

e|---------------------------------------------------------------------------| 
B|---------------------------------------------------------------------------| 
G|-----------------------------------------------------3-6-3-----------------| 
D|-----------------------------------------------3-3h6-----------------------| 
A|---------------4-------------6-----4-------4h6-----------------------------| 
E|-6-6-6-6-6-6-6---6-6-6-6-6-6---6-6---6-6-6---------------------------------| x4 

e|---------------------------------------------------------------------------| 
B|---------------------------------------------------------------------------| 
G|-----------------------------------------------------------3-6-3-----------| 
D|-----------------------------------------------------3-3h6-----------------| 
A|-------------------------------------------------4h6-----------------------| 
E|-6-6-6-6-6-6-6-6-6-6-6-6-6-6-6-6-6-6-6-6-6-6-6-6---------------------------| x4 


Chorus 

e|---------------------------------------------------------------------------| 
B|---------------------------------------------------------------------------| 
G|---------------------------------------------------------------------------| 
D|-----3h6-----3h6-----3h6-----3h6-------------------------------------------| 
A|-4h6-----4h6-----4h6-----4h6-----------------------------------------------| 
E|---------------------------------6-6-6-6-6-6-6-6-6-6-6-6-6-6-6-6-----------| 

e|---------------------------------------------------------------------------| 
B|---------------------------------------------------------------------------| 
G|-----------------------------------------------------------3-6-3-----------| 
D|-----3h6-----3h6-----3h6-----3h6---------------------3-3h6-----------------| 
A|-4h6-----4h6-----4h6-----4h6---------------------4h6-----------------------| 
E|---------------------------------6-6-6-6-6-6-6-6---------------------------| 


verse 2 

e|---------------------------------------------------------------------------| 
B|---------------------------------------------------------------------------| 
G|-----------------------------------------------------3-6-3-----------------| 
D|-----------------------------------------------3-3h6-----------------------| 
A|---------------4-------------6-----4-------4h6-----------------------------| 
E|-6-6-6-6-6-6-6---6-6-6-6-6-6---6-6---6-6-6---------------------------------| x4 

e|---------------------------------------------------------------------------| 
B|---------------------------------------------------------------------------| 
G|-----------------------------------------------------------3-6-3-----------| 
D|-----------------------------------------------------3-3h6-----------------| 
A|-------------------------------------------------4h6-----------------------| 
E|-6-6-6-6-6-6-6-6-6-6-6-6-6-6-6-6-6-6-6-6-6-6-6-6---------------------------| x4 


Chorus 

e|---------------------------------------------------------------------------| 
B|---------------------------------------------------------------------------| 
G|---------------------------------------------------------------------------| 
D|-----3h6-----3h6-----3h6-----3h6-------------------------------------------| 
A|-4h6-----4h6-----4h6-----4h6-----------------------------------------------| 
E|---------------------------------6-6-6-6-6-6-6-6-6-6-6-6-6-6-6-6-----------| 

e|---------------------------------------------------------------------------| 
B|---------------------------------------------------------------------------| 
G|-----------------------------------------------------------3-6-3-----------| 
D|-----3h6-----3h6-----3h6-----3h6---------------------3-3h6-----------------| 
A|-4h6-----4h6-----4h6-----4h6---------------------4h6-----------------------| 
E|---------------------------------6-6-6-6-6-6-6-6---------------------------| 


Bridge 

e|---------------------------------------------------------------------------| 
B|---------------------------------------------------------------------------| 
G|---------------------------------------------------------------------------| 
D|-------------4-3-----3-----------------------------------------------------| 
A|---4-------------6-----6-4---3-4-3-----------------------------------------| 
E|-6---6-6-6-----------------------------------------------------------------| x4 

e|-----------------------------------------------------------------------------------------------------| 
B|-----------------------------------------------------------------------------------------------------| 
G|----------------------------------------------------------------------------------------------3-6-3--| 
D|-----4-3---------3-----------4-3---------3-----------4-3---------3-----------4-3--------3-3h6--------| 
A|---------6---------6-4-----------6---------6-4-----------6---------6-4-----------6--4h6--------------| 
E|-6-6---------6-6---------6-6---------6-6---------6-6---------6-6---------6-6-------------------------| x2 

e|---------------------------------------------------------------------------| 
B|---------------------------------------------------------------------------| 
G|---------------------------------------------------------------------------| 
D|-------------4-3-----3-----------------------------------------------------| 
A|---4-------------6-----6-4---3-4-3-----------------------------------------| 
E|-6---6-6-6-----------------------------------------------------------------| x4 

e|-----------------------------------------------------------------------------------------------------| 
B|-----------------------------------------------------------------------------------------------------| 
G|----------------------------------------------------------------------------------------------3-6-3--| 
D|-----4-3---------3-----------4-3---------3-----------4-3---------3-----------4-3--------3-3h6--------| 
A|---------6---------6-4-----------6---------6-4-----------6---------6-4-----------6--4h6--------------| 
E|-6-6---------6-6---------6-6---------6-6---------6-6---------6-6---------6-6-------------------------| x2 

Outro 

e|---------------------------------------------------------------------------| 
B|---------------------------------------------------------------------------| 
G|---------------------------------------------------------------------------| 
D|---------------------------------------------------------------------------| 
A|-----4-------6-------4-----------------------------------------------------| 
E|-6-6---6-6-6---6-6-6---6-6-4-4-4-------------------------------------------| x4 

e|---------------------------------------------------------------------------| 
B|---------------------------------------------------------------------------| 
G|-----------3----------3-------3h4p3----------------------------------------| 
D|-------3h6---7b-7-6-6---6-3-6-------6-3------------------------------------| 
A|---4h6----------------------------------4----------------------------------| 
E|-6-------------------------------------------------------------------------| 

e|---------------------------------------------------------------------------| 
B|---------------------------------------------------------------------------| 
G|---------------------------------------------------------------------------| 
D|---------------------------------------------------------------------------| 
A|-----4-------6-------4-----------------------------------------------------| 
E|-6-6---6-6-6---6-6-6---6-6-4-4-4-------------------------------------------| x4 

e|---------------------------------------------------------------------------| 
B|---------------------------------------------------------------------------| 
G|---------------------------------------------------------------------------| 
D|---------------------------------------------------------------------------| 
A|---------------------------------------------------------------------------| 
E|-6-------------------------------------------------------------------------| x4 

************************************ 
| h   Hammer-on 
| p   Pull-off 
| b   Bend 
************************************ 
		  

See also:

tabs Fernandinho - Caia Fogo tabs Lázaro - Meu Mestre tabs Atmosfera de Adoração - Agnus Dei(Solo) tabs Toque no Altar - Eu vou viver uma virada tabs Kleber Lucas - Deus cuida de mim tabs Oficina G3 - Continuar
e-chords

Other versions:

tabs Stratovarius - Visions tabs Crematory - Visions tabs The Maine - Visions tabs Washya - Visions tabs Brenda - Visions tabs Black Pyramid - Visions Of Gehenna
auto scroll beats size up size down change color hide chords drawings
tab show chords e-chords YouTube Clip e-chords hide all tabs e-chords go to top tab

share