Bluegrass

Jimmy In The Swamp

Bluegrass

tabs Expert expert

save to print version add songbook text version e-mail correct tuner
chordsukulelecavacokeyboardtabbassdrumsharmonicaflute Guitar Pro
close

there isn't a video lesson for this song

chords

Jimmy In The Swamp

	  		Play Part A Twice followed by part B Twice and use 12th  
fret harmonics the second time on part be where I have 
them marked instead of the open strings in front of them. 
 
 
Part A 
 
E-------------------0-0-2-3-0---2-0------------------------| 
B---------0-------0-----------3-----3-0-2-3-0-----3--------| 
G-----0h2---2-0-2-----------------------------2/4---2h4p2--| 
D-0h2-----------------------------------------------------2| 
A----------------------------------------------------------| 
E----------------------------------------------------------| 
 
E-----------------------0-----7---5---0--------------------| 
B---------0-------0-3/5-5-3/8---8---8---3-0----------------| 
G-----0h2---2-0-2---------------------------2/4-2-0-2-0h2--| 
D-0h2-----------------------------------------------------2| 
A----------------------------------------------------------| 
E----------------------------------------------------------| 
 
Part B 
 
E---0-0--0-0-2-0-----3-2-0---------------------------------| 
B-3/5-5--0-------3-0-----------------0h1-0-----------------| 
G--------0-----------------0-----0h2-------2-0-------------| 
D--------2-------------------0h2---------------4p2-0-------| 
A--------2-------------------------------------------------| 
E--------0-------------------------------------------------| 
 
E---0--(12)---0-2-0-----3-2-0------------------------------| 
B----0--(12)--------3-0------------------------------------| 
G-----0--(12)-----------------------0-2-4-0-2---0----------| 
D-----------------------------2-2h4-----------4------------| 
A----------------------------------------------------------| 
E-0--------------------------------------------------------| 
		  

Full key step upFull key step up
Half key step upHalf key step up
Half key step downHalf key step down
Full key step downFull key step down
hide glossary

See also:

tabs Esteban - Unchained Melody tabs Rascal Flatts - Fast Cars And Freedom (ver.2) tabs Elliott Smith - Say Yes tabs Crosby, Stills, Nash & Young - Suite Judy Blue Eyes tabs Charlie Daniels - Long Haired Country Boy (ver. 2) tabs Crosby, Stills, Nash & Young - Suite Judy Blue Eyes
e-chords

Other versions:

tabs Bluegrass - Jimmy In The Swamp
auto scroll beats size up size down change color hide chords drawings
tab show chords e-chords YouTube Clip e-chords hide all tabs e-chords go to top tab

share