Scott Joplin

The Entertainer

Scott Joplin

tabs Easy easy

save to print version add songbook text version e-mail correct tuner
chordsukulelecavacokeyboardtabbassdrumsharmonicaflute Guitar Pro
close

there isn't a video lesson for this song

chords

The Entertainer

	  		This is just the intro and the main riff 
S=Slide 
 
INTRO: 
e-17-19-15----------5-7-3-----------------------2 
B----------17-19-15--------5-7-3----------------3 
G--------------------------------2-4-0----------2 
D---------------------------------------2-4-0-0-- 
A------------------------------------------------ 
E------------------------------------------------ 
 
MAIN RIFF: 
e----------------------------7---7--------- 
B-----------8---8---8-8-8-10---8---10-10-8- 
G------------------------------------------ 
D-----5-7s9---9---9------------------------ 
A-5-7-------------------------------------- 
E------------------------------------------ 
 
e---------------------------------7-------- 
B-----------8---8---8-8-7-7-5-7-8---10-8-10 
G------------------------------------------ 
D-----5-7s9---9---9------------------------ 
A-5-7-------------------------------------- 
E------------------------------------------ 
 
e----------------------------7---7--------- 
B-----------8---8---8-8-8-10---8---10-10-8- 
G------------------------------------------ 
D-----5-7s9---9---9------------------------ 
A-5-7-------------------------------------- 
E------------------------------------------ 
 
e--------7------7------7------7------7------7-------------3 
B-8-8-10---8-10---8-10---8-10---8-10---8-10---8-10-8------3 
G---------------------------------------------------------0 
D---------------------------------------------------------0 
A---------------------------------------------------------2 
E----------------------------------------------------10s0-3 

		  

See also:

tabs Bluegrass - Whiskey Before Breakfast tabs James Taylor - Youve Got A Friend (ver. 2) tabs Garth Brooks - The Dance - Fingerstyle tabs Crosby, Stills, Nash & Young - Suite Judy Blue Eyes tabs Jimmy Buffett - A Pirate Looks At Forty Solo (correct) tabs Alan Jackson - Chattahoochee Correct
e-chords

Other versions:

tabs Scott Joplin - The Entertainer
auto scroll beats size up size down change color hide chords drawings
tab show chords e-chords YouTube Clip e-chords hide all tabs e-chords go to top tab

share