Blue Man Group

home > Blue Man Group

Time To Start Tab

Blue Man Group

Difficulty: nolevelnolevel

by stubop

tuner correct add songbook print version text version save to e-mail
chordsukulelecavacokeyboardtabbassdrumsharmonicsflute Guitar Pro
chords

Time To Start

  		Main Riff 
------------------------------------------------- 
------------------------------------------------- 
------------------------------------------------- 
-3--4--6--8--6-4-3--4--3-------3--4--3----------- 
--------------------------2-------------2---4---- 
------------------------------------------------- 

Bridge with strange "wiggle" noise in background 
-----------------------------------------9-7~~~~- 
------------------------------------------------- 
--4-3-1/8--4-3-1-----------4-3-1/8----4*--------- 
-----------------4-2----------------4*----------- 
---------------------4--------------------------- 
------------------------------------------------- 
	  

Search Paypal
auto scroll beats size up size down change color hide chords drawings
tab show chords e-chords YouTube Clip e-chords hide all tabs e-chords go to top tab