Blue Man Group

home > Blue Man Group

Time To Start (guitar2) Tab

Blue Man Group

Difficulty: nolevelnolevel

by stubop

tuner correct add songbook print version text version save to e-mail
chordsukulelecavacokeyboardtabbassdrumsharmonicsflute Guitar Pro
chords

Time To Start (guitar2)

  		Intro/PVC part repeat 
------------ 
------------ 
------------ 
------------ 
--4-----2-0- 
------------ 

Jumping Motion (repeat 3 times) 
-------------------------------- 
-------------------------------- 
-------------------------------- 
-------------------------------- 
-4---hold until talking stops--- 
-------------------------------- 

------------------------------ 
------------------------------ 
------------------------------ 
------------------------------ 
-8---9-11-14----9---11-8------ 
------------------------------ 

Step 3. 
---------------------------------- 
---------------------------------- 
---------------------------------- 
-66666666777777774444444477777777- 
-66666666777777774444444477777777- 
-44444444555555552222222255555555- 
repeat 
------------------------------------------------- 
------------------------------------------------- 
------------------------------------------------- 
-66666666777777779999999911-11-11-11-11-11-11-11- 
-66666666777777779999999911-11-11-11-11-11-11-11- 
-4444444455555555777777779--9--9--9--9--9--9--9-- 

------------------------- 
------------------------- 
------------------------- 
-11-11-11-11-11-11-11-11- pick screech 
-11-11-11-11-11-11-11-11- 
-9--9--9--9--9--9--9--9-- 

after 3rd drums, slide pick up and down strings 
then the intro again for a few 

repeat each part (except for the long 4 on jumping motion) 

end 
------------------------- 
------------------------- 
------------------------- 
-11-11-11-11-11-11-9-11/ 
-11-11-11-11-11-11-9-11/ 
-9--9--9--9--9--9--7--9/ 
	  

Search Paypal
auto scroll beats size up size down change color hide chords drawings
tab show chords e-chords YouTube Clip e-chords hide all tabs e-chords go to top tab