Buckethead

Nottungham Lace

Buckethead

tabs

by  HALEN666

save to print version add songbook text version e-mail correct tuner
chordsukulelecavacokeyboardtabbassdrumsharmonicaflute Guitar Pro
close

there isn't a video lesson for this song

chords

Nottungham Lace

	  		 Gtr (C G C F A D) 

Gtr III 
                                                 4x 
||-----------------------|-----------------------|| 
||o----------------------|----------------------o|| 
||-----------------------|-----------------------|| 
||-----------------------|-----------------------|| 
||o----------------------|----------------------o|| 
||--3h5-x-3-2h3-x-1-0h1--|-3h5-x-3-2h3-x-1-0h1---|| 

                                Gtr II 
|----------------|--------------||-------/20--18----17-|-22---20--18---17--|| 
|----------------|--------------||o-15-----------------|------------------o|| 
|----------------|--------------||---------------------|-------------------|| 
|----------------|--------------||---------------------|-------------------|| 
|----------------|--------------||o--------------------|------------------o|| 
|----------------|--------------||---------------------|-------------------|| 
| 
| Gtr I 
|-8-8-8--11-11---|-8-8-8--6-6---||---8-8---8--11-11----|--8-8--8---6-6-----|| 
|-8-8-8--11-11---|-8-8-8--6-6---||o--8-8---8--11-11----|--8-8--8---6-6----o|| 
|----------------|--------------||---------------------|-------------------|| 
|----------------|--------------||---------------------|-------------------|| 
|----------------|--------------||o--------------------|------------------o|| 
|----------------|--------------||---------------------|-------------------|| 

                                        3x 
||-------/20--18--17-|-22---20--18--17--||------/20--18--17-|--------------| 
||o-15---------------|-----------------o||-15---------------|--------------| 
||-------------------|------------------||------------------|--------------| 
||-------------------|------------------||------------------|--------------| 
||o------------------|-----------------o||------------------|--------------| 
||-------------------|------------------||------------------|--------------| 
| 
|                                       3x 
||-------------------|------------------||------------------|--------------| 
||o------------------|-----------------o||------------------|--------------| 
||-------------------|------------------||------------------|--------------| 
||---------5---3---2-|--7----5---3---2--||--------5---3---2-|-7--5--3--2---| 
||o--0-----3---1---0-|--5----3---1---0-o||--0-----3---1---0-|-5--3--1--0---| 
||---0---------------|------------------||--0---------------|--------------| 

Gtr III 
                                                 4x 
||-----------------------|-----------------------|| 
||o----------------------|----------------------o|| 
||-----------------------|-----------------------|| 
||-----------------------|-----------------------|| 
||o----------------------|----------------------o|| 
||--3h5-x-3-2h3-x-1-0h1--|-3h5-x-3-2h3-x-1-0h1---|| 

|-----| 
|-----| 
|-----| 
|-----| 
|-----| 
|-----| 

||----------------------|---------------------| 
||o---------------------|---------------------| 
||----------------------|---------------------| 
||----------------------|---------------------| 
||o---------------------|---------------------| 
||--5-x-5-x-5-x-5-x-6-3-|-5-x-5-x-5-x-5-x-6-3-| 

|---------------------|----------------------------|| 
|---------------------|---------------------------o|| 
|---------------------|----------------------------|| 
|---------------------|----------------------------|| 
|---------------------|---------------------------o|| 
|-5-x-5-x-5-x-5-x-6-3-|-5-x-5-x-5-8-5-8-5-6-3-6-3--|| 

                             ~                              ~ 
                                                                 4x 
||---------------------------9---|--------------------------9----|| 
||o----------9-10-11-10-9--------|----------9-10-11-10-9--------o|| 
||--12-12-12--------------12-----|-12-12-12--------------12------|| 
||-------------------------------|-------------------------------|| 
||o------------------------------|------------------------------o|| 
||-------------------------------|-------------------------------|| 

Gtr II 
                             8x                              3x 
||---------------------------||-||---------------------------|| 
||o-------------------------o||-||o-------------------------o|| 
||--14-10-14-10--9-10-12--9--||-||--14-10-14-10--9-10-12--9--|| 
||--12-12-12-12-10-10-10-10--||-||--12-12-12-12-10-10-10-10--|| 
||o-------------------------o||-||o-------------------------o|| 
||---------------------------||-||---------------------------|| 
| 
| Gtr I 
|                            8x                              3x 
||---------------------------||-||---------------------------|| 
||o-------------------------o||-||o-------------------------o|| 
||---------------------------||-||---------------------------|| 
||---------------------------||-||---7-----------5-----------|| 
||o-------------------------o||-||o--5-----------3----------o|| 
||---------------------------||-||---------------------------|| 

                                                    3x 
|----------------------||---------------------------||-----------------------| 
|----------------------||o-------------------------o||-----------------------| 
|-7-9-10-7--9-10-12--9-||--14-10-14-10--9-10-12--9--||-7-9-10-7--9-10-12--9--| 
|-8-8--8-8-10-10-10-10-||--12-12-12-12-10-10-10-10--||-8-8--8-8-10-10-10-10--| 
|----------------------||o-------------------------o||-----------------------| 
|----------------------||---------------------------||-----------------------| 
| 
|                                                   3x 
|----------------------||---------------------------||-----------------------| 
|----------------------||o-------------------------o||-----------------------| 
|----------------------||---------------------------||-----------------------| 
|-3---------5----------||---7-----------5-----------||-3---------5-----------| 
|-1---------3----------||o--5-----------3----------o||-1---------3-----------| 
|----------------------||---------------------------||-----------------------| 

the solo i can't tab so can some one send it to me 
[email protected] 
		  

Full key step upFull key step up
Half key step upHalf key step up
Half key step downHalf key step down
Full key step downFull key step down
hide glossary

See also:

tabs Shiny Toy Guns - When Did This Storm Begin tabs Celldweller - The Wings Of Icarus tabs Peaches - Sucker tabs Buckethead - Four Rivers tabs Shiny Toy Guns - Ricoche tabs To Mars and Back Again - Follow the yellow brick road
e-chords

Other versions:

tabs Buckethead - Nottungham Lace
auto scroll beats size up size down change color hide chords drawings
tab show chords e-chords YouTube Clip e-chords hide all tabs e-chords go to top tab

share