Blitzkid

Theyre All Dead

Blitzkid

tabs

by  BOMBAXXX

save to print version add songbook text version e-mail correct tuner
chordsukulelecavacokeyboardtabbassdrumsharmonicaflute Guitar Pro
close

there isn't a video lesson for this song

chords

Theyre All Dead

	  		
Tuning: E A D G B e

INTRO 

|--------------------------------------------| 
|--------------------------------------------| 
|--------------------------------------------| 
|-----------6--9--8----------------6--9--11--| 
|-6---8--9--4--7--6----6---8--9----4--7--9---| 
|-4---6--7-------------4---6--7--------------| 
      .  .                 .  .       



|------------------------------------------| 
|------------------------------------------| 
|------------------------------------------| 
|------------------------------------------|x2 
|--6-6-6---9-9-9---2-2-2---4-4-4--4-4-4----| 
|--4-4-4---7-7-7---0-0-0---2-2-2--2-2-2----| 
                                  . . . 

VERSE 


|------------------------------------------| 
|------------------------------------------| 
|------------------------------------------| 
|------------------------------------------|x3 
|--66666666--99999999--22222222--44444444--| 
|--44444444--77777777--00000000--22222222--| 
   ........  ........  ........  ........         
   .  .  .   .  .  .   .  .  .   .  .  .  


"Here we stand amongst the ruins or apocalictic times, It's no longer 
easy for us to just try and survive,they've taken over everything, 
and are beating down my door" 


|------------------------------------------------| 
|------------------------------------------------| 
|--------------------------------11-11--11-11-11-| 
|--------------------------------x--x---x--x--x--| 
|--66666666--99999999--22222222--9--9---9--9--9--| 
|--44444444--77777777--00000000------------------| 
   ........  ........  ........          
   .  .  .   .  .  .   .  .  .    


"Bloodthirsty, this undead breed can sense what lies behind: LIFE" 


CHORUS 


|----------------------------------------| 
|----------------------------------------| 
|------------------------88-8--66-6--44--| 
|------------------------xx-x--xx-x--xx--| 
|--2222222222222222--6---66-6--44-4--22--| 
|--0000000000000000--4-------------------| 
   |   16 hits    | 

"Can we escape?" 


|----------------------------------------| 
|----------------------------------------| 
|------------------------66-6--44-4--33--| 
|------------------------xx-x--xx-x--xx--| 
|--2222222222222222--6---44-4--22-2--11--| 
|--0000000000000000--4-------------------| 


"Can we make it through another day?" 


|----------------------------------------| 
|----------------------------------------| 
|------------------------88-8--66-6--44--| 
|------------------------xx-x--xx-x--xx--| 
|--2222222222222222--6---66-6--44-4--22--| 
|--0000000000000000--4-------------------| 


"Can we ignore?" 


|--------------------------------------------| 
|--------------------------------------------| 
|--------------------------------------------| 
|--------------------------------------------| 
|--4-444444--4-444444--4-44-4-44-4-44-4-44-4-| 
|--2-222222--2-222222--2-22-2-22-2-22-2-22-2-| 
     ......    ......    ..   ..   ..   .. 

"Warning shadows passing by the door" 


2nd VERSE 


|------------------------------------------| 
|------------------------------------------| 
|------------------------------------------| 
|------------------------------------------|x3 
|--66666666--99999999--22222222--44444444--| 
|--44444444--77777777--00000000--22222222--| 
   ........  ........  ........  ........         
   .  .  .   .  .  .   .  .  .   .  .  .  


"I used to have a family, and I used to have close friends, 
now this long companion is this shotgun in my hand, no it  
dosn't keep me warm at night, that's what memories are for" 


|------------------------------------------------| 
|------------------------------------------------| 
|--------------------------------11-11--11-11-11-| 
|--------------------------------x--x---x--x--x--| 
|--66666666--99999999--22222222--9--9---9--9--9--| 
|--44444444--77777777--00000000------------------| 
   ........  ........  ........          
   .  .  .   .  .  .   .  .  .    

"But they are dimly fading and my trigger finger's sore" 



2nd CHORUS 


|----------------------------------------| 
|----------------------------------------| 
|------------------------88-8--66-6--44--| 
|------------------------xx-x--xx-x--xx--| 
|--2222222222222222--6---66-6--44-4--22--| 
|--0000000000000000--4-------------------| 
   |   16 hits    | 


"Can we escape? 


|----------------------------------------| 
|----------------------------------------| 
|------------------------66-6--44-4--33--| 
|------------------------xx-x--xx-x--xx--| 
|--2222222222222222--6---44-4--22-2--11--| 
|--0000000000000000--4-------------------| 

"Can we make it through another day?" 


|----------------------------------------| 
|----------------------------------------| 
|------------------------88-8--66-6--44--| 
|------------------------xx-x--xx-x--xx--| 
|--2222222222222222--6---66-6--44-4--22--| 
|--0000000000000000--4-------------------| 


"Is there any hope inside at all?" 


|---------------------------------------------| 
|---------------------------------------------| 
|---------------------------------------------| 
|---------------------------------------------| 
|--4-444444--4-444444--4-44-4-44-4-44-444444--| 
|--2-222222--2-222222--2-22-2-22-2-22-222222--| 
     ......    ......    ..   ..   .. 

"Or will this be mankind's curtain call?" 


BRIDGE 


|---------------------------------------------| 
|---------------------------------------------| 
|---------------------------------------------| 
|---------------------------------------------| 
|--2----4----6----4----2----9----4------------| 
|--0----2----4----2----0----7----2------------| 


"They're all dead, they lie in wait tonight, to feast upon 
my body and my soul"  


|---------------------------------------------| 
|---------------------------------------------| 
|---------------------------------------------| 
|---------------------------------------------| 
|--------4-6-7-7-9----------------------------| 
|--4-6-7--------------------------------------| 
   . . . . . . 


|---------------------------------------------| 
|---------------------------------------------| 
|---------------------------------------------| 
|---------------------------------------------| 
|--2----4----6----4----2----9----4------------| 
|--0----2----4----2----0----7----2------------| 


"They're all dead, they'll have their way this time, because Im 
giving up on my sense of control"  



|------------------------------------------| 
|------------------------------------------| 
|------------------------------------------|x4 solo 
|------------------------------------------| then 
|--99999999--44444444--22222222--44444444--|x4 with below as 2nd guitar 
|--77777777--22222222--00000000--22222222--| 
   ........  ........  ........  ........ 
   .  .  .   .  .  .   .  .  .   .  .  . 
  

"Now if you asked me month's ago, if i'd be praying for the end, 
i would say that you're crazy,and try my best to just pretend, 
that all is fine, I gave it time, but now i watch the dim sun rise, 
and treat it like it's the last day that i'll ever be alive, 
because it is"  


|-----------------------------------------------------| 
|-----------------------------------------------------| 
|--8-88-8-88-8--6-66-6-66-6--9-99-9-99-9--6-66-6-66-6-| 
|--6-66-6-66-6--4-44-4-44-4--9-99-9-99-9--4-44-4-44-4-|x3 
|-----------------------------------------------------| 
|-----------------------------------------------------| 
     ..   ..      ..   ..      ..   ..      ..   ..   


"Because it is, because it is, because it is" 


|----------------------------------------------| 
|----------------------------------------------| 
|--8-88-8-88-8--6-66-6-66-6--------------------| 
|--6-66-6-66-6--4-44-4-44-4--------------------| 
|-----------------------------2-22222--4-44444-| 
|-----------------------------0-00000--2-22222-| 
     ..   ..      ..   ..       


3rd CHORUS 


|---------------------------------------------------| 
|---------------------------------------------------| 
|---------------------------------------------------| 
|---------------------------------------------------| 
|--22222--44444--66666--44444--22222--99999--44444--| 
|--00000--22222--44444--22222--00000--77777--22222--| 
   ....   ....   ....   ....   ....   ....   ....                        


"They're all dead, they lie in wait tonight,  
to feast upon my body and my soul" 


|---------------------------------------------| 
|---------------------------------------------| 
|---------------------------------------------| 
|---------------------------------------------| 
|--------4-6-7-7-9----------------------------| 
|--4-6-7--------------------------------------| 
   . . . . . . 



"They're all dead, they'll have their way this time, because Im 
giving up on my sense of control"  


|----------------------------------------------------------| 
|----------------------------------------------------------| 
|----------------------------------------------------------| 
|----------------------------------------------------------| 
|--22222--44444--66666--44444--22222--99999--4-44-4-44-4-4-| 
|--00000--22222--44444--22222--00000--77777--2-22-2-22-2-2-| 
   ....   ....   ....   ....   ....   ....     ..   ..  


OUTRO 


|------------------------------------------| 
|------------------------------------------| 
|------------------------------------------| 
|------------------------------------------|x2 
|--6-6-6---9-9-9---2-2-2---4-4-4--4-4-4----| 
|--4-4-4---7-7-7---0-0-0---2-2-2--2-2-2----| 
                                  . . . 

|---------------------------------------------| 
|---------------------------------------------| 
|---------------------------------------------| 
|---------------------------------------------|x2 
|--66666666-99999999-22222222-44444444--------| 
|--44444444-77777777-00000000-22222222--------| 


"They're all dead, they're all dead, they're all dead" 


|-----------------------------------| 
|-----------------------------------| 
|-----------------------------------| 
|-----------------------------------| 
|--6--------------------------------| 
|--4--------------------------------| 



      


      *ALTERNATE CHORUS* 


|-----------------------------------| 
|-----------------------------------| 
|--3\--8---3\--6---3\--4------------| 
|--x---x---x---x---x---x------------| 
|--1\--6---1\--4---1\--2------------| 
|-----------------------------------| 


|-----------------------------------| 
|-----------------------------------| 
|--3\--6---3\--4------h3------------| 
|--x---x---x---x--------------------| 
|--1\--4---1\--2---0--h1------------| 
|-----------------------------------| 


 
		  

See also:

tabs Guns N' Roses - Don't Cry tabs Aerosmith - Dream On tabs Guns N' Roses - Sweet Child o' mine tabs Guns N' Roses - Welcome to The Jungle tabs Rage Against The Machine - Killing In The Name (ver. 2) tabs The Doors - People Are Strange
e-chords

Other versions:

tabs Blitzkid - Theyre All Dead
auto scroll beats size up size down change color hide chords drawings
tab show chords e-chords YouTube Clip e-chords hide all tabs e-chords go to top tab

share with facebook