Blink 182

home > Blink 182

The Guy And His Sister Tab

Blink 182

Difficulty: nolevelnolevel

tuner correct add songbook print version text version save to e-mail
chordsukulelecavacokeyboardtabbassdrumsharmonicsflute Guitar Pro
chords

The Guy And His Sister

  		Transcribed by: MiKe YoRk 
Email: [email protected] 

Hey, 
Well, here is a funny song by Blink 182 that is pretty easy to play but its 
cool when you play it. Ok here we go! No Distortion by the way. 

------------------------------------------------------------------------------ 
------------------------------------------------------------------------------ 
-3---------------------------------------------------------------------------- 
-4---------------------------------------------------------------------------- 
-4---------------------------------------------------------------------------- 
-2---------------------------------------------------------------------------- 
 LET RING...........  "I know a Guy...."                                                   

------------------------------------------------------------------------------ 
------------------------------------------------------------------------------ 
-33333333-77777777-88888888-33333333------------------------------------------ 
-66666666-88888888-99999999-44444444------------------------------------------ 
-66666666-88888888-99999999-44444444------------------------------------------ 
-44444444-66666666-77777777-22222222------------------------------------------ 
  ALL PALM MUTED.................... REPEAT THIS THROUGH THE SONG              
"He has....." 
------------------------------------------------------------------------------ 
------------------------------------------------------------------------------ 
-3---------------------------------------------------------------------------- 
-4---------------------------------------------------------------------------- 
-4---------------------------------------------------------------------------- 
-2---------------------------------------------------------------------------- 
 let ring..... This song is #38 on the LIVE CD!!! C ya! 
	  

Search Paypal
auto scroll beats size up size down change color hide chords drawings
tab show chords e-chords YouTube Clip e-chords hide all tabs e-chords go to top tab