Black Veil Brides

home > Black Veil Brides

New Years Day Tab

Black Veil Brides

Difficulty: IntermediateIntermediate

by adalgomes

tuner correct add songbook print version text version save to e-mail
chordsukulelecavacokeyboardtabbassdrumsharmonicsflute Guitar Pro
chords

New Years Day

  		

Tuning: C G C F A D 


Guitar 1 

                                             
       T  T  T  T  H               H        H          
D||-------------------------------|--------------------| 
A||-------------------------------|--------------------| 
F||-------------------------------|--------------------| 
C||--0--0--0--0--0--0-------------|-----------0--------| 
G||--0--0--0--0--0--0-------------|-----------0--------| 
C||--0--0--0--0--0--0-------------|-----------0--------| 


                                                 
    T  T  T  T  H                         T  T  T  T  H              
-------------------------------|-------|-------------------------------| 
-------------------------------|-------|-------------------------------| 
-------------------------------|-------|-------------------------------| 
--0--0--0--0--0--0-------------|-------|--0--0--0--0--0--0-------------| 
--0--0--0--0--0--0-------------|-------|--0--0--0--0--0--0-------------| 
--0--0--0--0--0--0-------------|-------|--0--0--0--0--0--0-------------| 


                                                  
  H        H             T  T  T  T  H                      
--------------------|-------------------------------|-------| 
--------------------|-------------------------------|-------| 
--------------------|-------------------------------|-------| 
-----------0--------|--0--0--0--0--0--0-------------|-------| 
-----------0--------|--0--0--0--0--0--0-------------|-------| 
-----------0--------|--0--0--0--0--0--0-------------|-------| 


                                    
--10-10-10-10-10-10-10-10-12-12-12-12-12-12-12-12-| 
---x--x--x--x--x--x--x--x--x--x--x--x--x--x--x--x-| 
---7--7--7--7--7--7--7--7--9--9--9--9--9--9--9--9-| 
--------------------------------------------------| 
--------------------------------------------------| 
--------------------------------------------------| 


                                               
--13-13-13-13-13-13-13-13-9-9-------------|----------------------------------| 
---x--x--x--x--x--x--x--x-x-x-------------|----------------------------------| 
--10-10-10-10-10-10-10-10-6-6-------------|--7-7-7-7-7-7-7-7-----------------| 
------------------------------------------|--7-7-7-7-7-7-7-7-8-8-8-8-8-8-8-8-| 
------------------------------------------|--5-5-5-5-5-5-5-5-8-8-8-8-8-8-8-8-| 
------------------------------------------|------------------8-8-8-8-8-8-8-8-| 


                                       
----------------------------------|----------------------------------| 
----------------------------------|----------------------------------| 
----------------------------------|--7-7-7-7-7-7-7-7-----------------| 
--3-3-3-3-3-3-3-3-5-5-5-5-5-5-5-5-|--7-7-7-7-7-7-7-7-8-8-8-8-8-8-8-8-| 
--3-3-3-3-3-3-3-3-5-5-5-5-5-5-5-5-|--5-5-5-5-5-5-5-5-8-8-8-8-8-8-8-8-| 
--3-3-3-3-3-3-3-3-5-5-5-5-5-5-5-5-|------------------8-8-8-8-8-8-8-8-| 


                    
----------------------------------| 
----------------------------------| 
------------------7-7-7-7-7-7-7-7-| 
--3-3-3-3-3-3-3-3-7-7-7-7-7-7-7-7-| 
--3-3-3-3-3-3-3-3-4-4-4-4-4-4-4-4-| 
--3-3-3-3-3-3-3-3-----------------| 


                                    
--10-10-10-10-10-10-10-10-12-12-12-12-12-12-12-12-| 
---x--x--x--x--x--x--x--x--x--x--x--x--x--x--x--x-| 
---7--7--7--7--7--7--7--7--9--9--9--9--9--9--9--9-| 
--------------------------------------------------| 
--------------------------------------------------| 
--------------------------------------------------| 


                                    
--13-13-13-13-13-13-13-13-18-18-18-18-15-15-15-15-| 
---x--x--x--x--x--x--x--x--x--x--x--x--x--x--x--x-| 
--10-10-10-10-10-10-10-10-15-15-15-15-12-12-12-12-| 
--------------------------------------------------| 
--------------------------------------------------| 
--------------------------------------------------| 


                                                                           
                                             
----------------------------------|-----------------------------------|----| 
----------------------------------|-----------------------------------|----| 
--7-7-7-7-7-7-7-7-----------------|---------------------7-7-7-7-7-7-7-|----| 
--7-7-7-7-7-7-7-7-8-8-8-8-8-8-8-8-|--3-3-3-3-3-3-3-3-0--7-7-7-7-7-7-7-|----| 
--5-5-5-5-5-5-5-5-8-8-8-8-8-8-8-8-|--3-3-3-3-3-3-3-3-0--4-4-4-4-4-4-4-|----| 
------------------8-8-8-8-8-8-8-8-|--3-3-3-3-3-3-3-3-0----------------|----| 


                       
         T  T  T  T                    
----|----------------------------------------| 
----|----------------------------------------| 
----|----------------------------------------| 
----|--0--0--0--0--0--0--0----0--0--0--0--0--| 
----|--0--0--0--0--0--0--0----0--0--0--0--0--| 
----|--0--0--0--0--0--0--0----0--0--0--0--0--| 


                  
    T  T  T  T                    
----------------------------------------| 
----------------------------------------| 
----------------------------------------| 
--8--8--8--8--8--8--8----8--8--7--7--7--| 
--8--8--8--8--8--8--8----8--8--7--7--7--| 
--8--8--8--8--8--8--8----8--8--7--7--7--| 


                  
    T  T  T  T                    
----------------------------------------| 
----------------------------------------| 
----------------------------------------| 
--0--0--0--0--0--0--0----0--0--0--0--0--| 
--0--0--0--0--0--0--0----0--0--0--0--0--| 
--0--0--0--0--0--0--0----0--0--0--0--0--| 


                  
    T  T  T  T                    
----------------------------------------| 
----------------------------------------| 
----------------------------------------| 
--8--8--8--8--8--8--8----8--8--7--7--7--| 
--8--8--8--8--8--8--8----8--8--7--7--7--| 
--8--8--8--8--8--8--8----8--8--7--7--7--| 


                  
    T  T  T  T                    
----------------------------------------| 
----------------------------------------| 
----------------------------------------| 
--0--0--0--0--0--0--0----0--0--0--0--0--| 
--0--0--0--0--0--0--0----0--0--0--0--0--| 
--0--0--0--0--0--0--0----0--0--0--0--0--| 


                  
    T  T  T  T                    
----------------------------------------| 
----------------------------------------| 
----------------------------------------| 
--8--8--8--8--8--8--8----8--8--7--7--7--| 
--8--8--8--8--8--8--8----8--8--7--7--7--| 
--8--8--8--8--8--8--8----8--8--7--7--7--| 


                  
    T  T  T  T                    
----------------------------------------| 
----------------------------------------| 
----------------------------------------| 
--0--0--0--0--0--0--0----0--0--0--0--0--| 
--0--0--0--0--0--0--0----0--0--0--0--0--| 
--0--0--0--0--0--0--0----0--0--0--0--0--| 


                  
    T  T  T  T                    
----------------------------------------| 
----------------------------------------| 
----------------------------------------| 
--8--8--8--8--8--8--8----8--8--7--7--7--| 
--8--8--8--8--8--8--8----8--8--7--7--7--| 
--8--8--8--8--8--8--8----8--8--7--7--7--| 


                                    
--10-10-10-10-10-10-10-10-12-12-12-12-12-12-12-12-| 
---x--x--x--x--x--x--x--x--x--x--x--x--x--x--x--x-| 
---7--7--7--7--7--7--7--7--9--9--9--9--9--9--9--9-| 
--------------------------------------------------| 
--------------------------------------------------| 
--------------------------------------------------| 


                                               
--13-13-13-13-13-13-13-13-9-9-9-9-9-9-9-9-|----------------------------------| 
---x--x--x--x--x--x--x--x-x-x-x-x-x-x-x-x-|----------------------------------| 
--10-10-10-10-10-10-10-10-6-6-6-6-6-6-6-6-|--7-7-7-7-7-7-7-7-----------------| 
------------------------------------------|--7-7-7-7-7-7-7-7-8-8-8-8-8-8-8-8-| 
------------------------------------------|--5-5-5-5-5-5-5-5-8-8-8-8-8-8-8-8-| 
------------------------------------------|------------------8-8-8-8-8-8-8-8-| 


                                       
----------------------------------|----------------------------------| 
----------------------------------|----------------------------------| 
----------------------------------|--7-7-7-7-7-7-7-7-----------------| 
--3-3-3-3-3-3-3-3-5-5-5-5-5-5-5-5-|--7-7-7-7-7-7-7-7-8-8-8-8-8-8-8-8-| 
--3-3-3-3-3-3-3-3-5-5-5-5-5-5-5-5-|--5-5-5-5-5-5-5-5-8-8-8-8-8-8-8-8-| 
--3-3-3-3-3-3-3-3-5-5-5-5-5-5-5-5-|------------------8-8-8-8-8-8-8-8-| 


                    
----------------------------------| 
----------------------------------| 
------------------7-7-7-7-7-7-7-7-| 
--3-3-3-3-3-3-3-3-7-7-7-7-7-7-7-7-| 
--3-3-3-3-3-3-3-3-4-4-4-4-4-4-4-4-| 
--3-3-3-3-3-3-3-3-----------------| 


                                    
--10-10-10-10-10-10-10-10-12-12-12-12-12-12-12-12-| 
---x--x--x--x--x--x--x--x--x--x--x--x--x--x--x--x-| 
---7--7--7--7--7--7--7--7--9--9--9--9--9--9--9--9-| 
--------------------------------------------------| 
--------------------------------------------------| 
--------------------------------------------------| 


                                    
--13-13-13-13-13-13-13-13-18-18-18-18-15-15-15-15-| 
---x--x--x--x--x--x--x--x--x--x--x--x--x--x--x--x-| 
--10-10-10-10-10-10-10-10-15-15-15-15-12-12-12-12-| 
--------------------------------------------------| 
--------------------------------------------------| 
--------------------------------------------------| 


                                                                      
                                        
----------------------------------|-----------------------------------| 
----------------------------------|-----------------------------------| 
--7-7-7-7-7-7-7-7-----------------|---------------------7-7-7-7-7-7-7-| 
--7-7-7-7-7-7-7-7-8-8-8-8-8-8-8-8-|--3-3-3-3-3-3-3-3-0--7-7-7-7-7-7-7-| 
--5-5-5-5-5-5-5-5-8-8-8-8-8-8-8-8-|--3-3-3-3-3-3-3-3-0--4-4-4-4-4-4-4-| 
------------------8-8-8-8-8-8-8-8-|--3-3-3-3-3-3-3-3-0----------------| 


                                                           
-----------------------------------------|------------------------------------| 
-------------10--------------------------|------------------------------------| 
--10-9-10-12----12-10-12-----------------|----------------------------12------| 
-------------------------11--12----------|--------------14-12-------------14--| 
---------------------------------13--12--|--15--14--12--------15--12----------| 
-----------------------------------------|------------------------------------| 


                             
---------------------------------12-| 
------------------------------13----| 
----------14--------------14--------| 
--12--15------15------14------------| 
------------------15----------------| 
------------------------------------| 


                                 
--13-10----10-13-10----10-13-8----13-12-9------| 
--------11----------11---------10---------10-8-| 
-----------------------------------------------| 
-----------------------------------------------| 
-----------------------------------------------| 
-----------------------------------------------| 


                                 
      T  T                  
-----------------------------------------| 
-----------------------------------------| 
--7--7--7--7--7--------------------------| 
--7--7--7--7--7--------------------------| 
--5--5--5--5--5--------------------------| 
-----------------------------------------| 


                           
      T  T             T  T       T  T      
-------------------------------------------------------| 
-------------------------------------------------------| 
-------------------------------------------------------| 
--8--8--8--8--8----------11-7--11-11-7--7--5--7--7--5--| 
--8--8--8--8--8----------------------------------------| 
--8--8--8--8--8----------------------------------------| 


                                
        T  T                 
------------------------------------------| 
------------------------------------------| 
--7--7--7--7--7--7------------------------| 
--7--7--7--7--7--7------------------------| 
--5--5--5--5--5--5------------------------| 
------------------------------------------| 


                           
      T  T             T  T       T  T      
-------------------------------------------------------| 
-------------------------------------------------------| 
-------------------------------------------------------| 
--8--8--8--8--8----------11-7--11-11-7--7--5--7--7--5--| 
--8--8--8--8--8----------------------------------------| 
--8--8--8--8--8----------------------------------------| 


                    
                                    
--------------------------------------------------| 
--------------------------------------------------| 
--7--7--7--7--7--7--7--7--10-10-10-10-10-10-10-10-| 
--7--7--7--7--7--7--7--7--10-10-10-10-10-10-10-10-| 
--5--5--5--5--5--5--5--5---8--8--8--8--8--8--8--8-| 
--------------------------------------------------| 


                      
                       T  T        T  T     
--------------------------------------------------------| 
--------------------------------------------------------| 
--------------------------14-14-14-14-14-12-12-12-12-12-| 
--8--8--8--8--8--8--8--8--14-14-14-14-14-12-12-12-12-12-| 
--8--8--8--8--8--8--8--8--12-12-12-12-12-10-10-10-10-10-| 
--8--8--8--8--8--8--8--8--------------------------------| 


                    
                                    
--------------------------------------------------| 
--------------------------------------------------| 
--7--7--7--7--7--7--7--7--10-10-10-10-10-10-10-10-| 
--7--7--7--7--7--7--7--7--10-10-10-10-10-10-10-10-| 
--5--5--5--5--5--5--5--5---8--8--8--8--8--8--8--8-| 
--------------------------------------------------| 


                                                               
                                               
------------------------------------------|----------------------------------| 
------------------------------------------|----------------------------------| 
------------------------------------------|--7-7-7-7-7-7-7-7-----------------| 
--8--8--8--8--8--8--8--8--8-8-8-8-8-8-8-8-|--7-7-7-7-7-7-7-7-8-8-8-8-8-8-8-8-| 
--8--8--8--8--8--8--8--8--8-8-8-8-8-8-8-8-|--5-5-5-5-5-5-5-5-8-8-8-8-8-8-8-8-| 
--8--8--8--8--8--8--8--8--8-8-8-8-8-8-8-8-|------------------8-8-8-8-8-8-8-8-| 


                                       
----------------------------------|----------------------------------| 
----------------------------------|----------------------------------| 
----------------------------------|--7-7-7-7-7-7-7-7-----------------| 
--3-3-3-3-3-3-3-3-5-5-5-5-5-5-5-5-|--7-7-7-7-7-7-7-7-8-8-8-8-8-8-8-8-| 
--3-3-3-3-3-3-3-3-5-5-5-5-5-5-5-5-|--5-5-5-5-5-5-5-5-8-8-8-8-8-8-8-8-| 
--3-3-3-3-3-3-3-3-5-5-5-5-5-5-5-5-|------------------8-8-8-8-8-8-8-8-| 


                                       
----------------------------------|----------------------------------| 
----------------------------------|----------------------------------| 
------------------7-7-7-7-7-7-7-7-|--7-7-7-7-7-7-7-7-9-9-9-9-9-9-9-9-| 
--3-3-3-3-3-3-3-3-7-7-7-7-7-7-7-7-|--x-x-x-x-x-x-x-x-x-x-x-x-x-x-x-x-| 
--3-3-3-3-3-3-3-3-4-4-4-4-4-4-4-4-|--5-5-5-5-5-5-5-5-7-7-7-7-7-7-7-7-| 
--3-3-3-3-3-3-3-3-----------------|----------------------------------| 


                                
----------------------------------------------| 
--------------------------11-11-11-11-8-8-8-8-| 
--10-10-10-10-10-10-10-10--x--x--x--x-x-x-x-x-| 
---x--x--x--x--x--x--x--x--8--8--8--8-5-5-5-5-| 
---8--8--8--8--8--8--8--8---------------------| 
----------------------------------------------| 


                                                                      
                                        
----------------------------------|-----------------------------------| 
----------------------------------|-----------------------------------| 
--7-7-7-7-7-7-7-7-----------------|---------------------7-7-7-7-7-7-7-| 
--7-7-7-7-7-7-7-7-8-8-8-8-8-8-8-8-|--3-3-3-3-3-3-3-3-0--7-7-7-7-7-7-7-| 
--5-5-5-5-5-5-5-5-8-8-8-8-8-8-8-8-|--3-3-3-3-3-3-3-3-0--4-4-4-4-4-4-4-| 
------------------8-8-8-8-8-8-8-8-|--3-3-3-3-3-3-3-3-0----------------| 


                                               
----------------------------|-----|----------------------------------| 
----------------------------|-----|----------------------------------| 
----------------------------|-----|--7-7-7-7-7-7-7-7-----------------| 
--12\-----------------------|-----|--7-7-7-7-7-7-7-7-8-8-8-8-8-8-8-8-| 
--12\-----------------------|-----|--5-5-5-5-5-5-5-5-8-8-8-8-8-8-8-8-| 
--12\-----------------------|-----|------------------8-8-8-8-8-8-8-8-| 


                                       
----------------------------------|----------------------------------| 
----------------------------------|----------------------------------| 
----------------------------------|--7-7-7-7-7-7-7-7-----------------| 
--3-3-3-3-3-3-3-3-5-5-5-5-5-5-5-5-|--7-7-7-7-7-7-7-7-8-8-8-8-8-8-8-8-| 
--3-3-3-3-3-3-3-3-5-5-5-5-5-5-5-5-|--5-5-5-5-5-5-5-5-8-8-8-8-8-8-8-8-| 
--3-3-3-3-3-3-3-3-5-5-5-5-5-5-5-5-|------------------8-8-8-8-8-8-8-8-| 


                    
----------------------------------| 
----------------------------------| 
------------------7-7-7-7-7-7-7-7-| 
--3-3-3-3-3-3-3-3-7-7-7-7-7-7-7-7-| 
--3-3-3-3-3-3-3-3-4-4-4-4-4-4-4-4-| 
--3-3-3-3-3-3-3-3-----------------| 


                                    
--10-10-10-10-10-10-10-10-12-12-12-12-12-12-12-12-| 
---x--x--x--x--x--x--x--x--x--x--x--x--x--x--x--x-| 
---7--7--7--7--7--7--7--7--9--9--9--9--9--9--9--9-| 
--------------------------------------------------| 
--------------------------------------------------| 
--------------------------------------------------| 


                                    
--13-13-13-13-13-13-13-13-18-18-18-18-15-15-15-15-| 
---x--x--x--x--x--x--x--x--x--x--x--x--x--x--x--x-| 
--10-10-10-10-10-10-10-10-15-15-15-15-12-12-12-12-| 
--------------------------------------------------| 
--------------------------------------------------| 
--------------------------------------------------| 


                                                
----------------------------------|--------------------------------|-----|| 
----------------------------------|--------------------------------|-----|| 
--7-7-7-7-7-7-7-7-----------------|--------------------------------|-----|| 
--7-7-7-7-7-7-7-7-8-8-8-8-8-8-8-8-|--3-3-3-3-3-3-3-3-12\-----------|-----|| 
--5-5-5-5-5-5-5-5-8-8-8-8-8-8-8-8-|--3-3-3-3-3-3-3-3-12\-----------|-----|| 
------------------8-8-8-8-8-8-8-8-|--3-3-3-3-3-3-3-3-12\-----------|-----|| 


Guitar 2 

                                             
       T  T  T  T  H               H        H          
D||-------------------------------|--------------------| 
A||-------------------------------|--------------------| 
F||-------------------------------|--------------------| 
C||--0--0--0--0--0--0-------------|-----------0--------| 
G||--0--0--0--0--0--0-------------|-----------0--------| 
C||--0--0--0--0--0--0-------------|-----------0--------| 


                                                       
    T  T  T  T  H                       H                     
-------------------------------|-------|-------------------------| 
-------------------------------|-------|--6--------/15----L--10--| 
-------------------------------|-------|-------------------------| 
--0--0--0--0--0--0-------------|-------|-------------------------| 
--0--0--0--0--0--0-------------|-------|-------------------------| 
--0--0--0--0--0--0-------------|-------|-------------------------| 


   H                       W                    H                  
-------------------------|--------------------|----------------------| 
--11--------/15----13----|--\6----------------|--\3--------6----8----| 
-------------------------|--------------------|----------------------| 
-------------------------|--------------------|----------------------| 
-------------------------|--------------------|----------------------| 
-------------------------|--------------------|----------------------| 


                                               
----------------------------------|------------------------------------------| 
----------------------------------|------------------------------------------| 
--7-7-7-7-7-7-7-7-9-9-9-9-9-9-9-9-|--10-10-10-10-10-10-10-10-6-6-------------| 
--x-x-x-x-x-x-x-x-x-x-x-x-x-x-x-x-|---x--x--x--x--x--x--x--x-x-x-------------| 
--5-5-5-5-5-5-5-5-7-7-7-7-7-7-7-7-|---8--8--8--8--8--8--8--8-4-4-------------| 
----------------------------------|------------------------------------------| 


                                       
----------------------------------|----------------------------------| 
----------------------------------|----------------------------------| 
--7-7-7-7-7-7-7-7-----------------|----------------------------------| 
--7-7-7-7-7-7-7-7-8-8-8-8-8-8-8-8-|--3-3-3-3-3-3-3-3-5-5-5-5-5-5-5-5-| 
--5-5-5-5-5-5-5-5-8-8-8-8-8-8-8-8-|--3-3-3-3-3-3-3-3-5-5-5-5-5-5-5-5-| 
------------------8-8-8-8-8-8-8-8-|--3-3-3-3-3-3-3-3-5-5-5-5-5-5-5-5-| 


                                       
----------------------------------|----------------------------------| 
----------------------------------|----------------------------------| 
--7-7-7-7-7-7-7-7-----------------|------------------7-7-7-7-7-7-7-7-| 
--7-7-7-7-7-7-7-7-8-8-8-8-8-8-8-8-|--3-3-3-3-3-3-3-3-7-7-7-7-7-7-7-7-| 
--5-5-5-5-5-5-5-5-8-8-8-8-8-8-8-8-|--3-3-3-3-3-3-3-3-4-4-4-4-4-4-4-4-| 
------------------8-8-8-8-8-8-8-8-|--3-3-3-3-3-3-3-3-----------------| 


                    
----------------------------------| 
----------------------------------| 
--7-7-7-7-7-7-7-7-9-9-9-9-9-9-9-9-| 
--x-x-x-x-x-x-x-x-x-x-x-x-x-x-x-x-| 
--5-5-5-5-5-5-5-5-7-7-7-7-7-7-7-7-| 
----------------------------------| 


                                
----------------------------------------------| 
--------------------------11-11-11-11-8-8-8-8-| 
--10-10-10-10-10-10-10-10--x--x--x--x-x-x-x-x-| 
---x--x--x--x--x--x--x--x--8--8--8--8-5-5-5-5-| 
---8--8--8--8--8--8--8--8---------------------| 
----------------------------------------------| 


                                                                           
                                             
----------------------------------|-----------------------------------|----| 
----------------------------------|-----------------------------------|----| 
--7-7-7-7-7-7-7-7-----------------|---------------------7-7-7-7-7-7-7-|----| 
--7-7-7-7-7-7-7-7-8-8-8-8-8-8-8-8-|--3-3-3-3-3-3-3-3-0--7-7-7-7-7-7-7-|----| 
--5-5-5-5-5-5-5-5-8-8-8-8-8-8-8-8-|--3-3-3-3-3-3-3-3-0--4-4-4-4-4-4-4-|----| 
------------------8-8-8-8-8-8-8-8-|--3-3-3-3-3-3-3-3-0----------------|----| 


                       
         T  T  T  T                    
----|----------------------------------------| 
----|----------------------------------------| 
----|----------------------------------------| 
----|--0--0--0--0--0--0--0----0--0--0--0--0--| 
----|--0--0--0--0--0--0--0----0--0--0--0--0--| 
----|--0--0--0--0--0--0--0----0--0--0--0--0--| 


                  
    T  T  T  T                    
----------------------------------------| 
----------------------------------------| 
----------------------------------------| 
--8--8--8--8--8--8--8----8--8--7--7--7--| 
--8--8--8--8--8--8--8----8--8--7--7--7--| 
--8--8--8--8--8--8--8----8--8--7--7--7--| 


                  
    T  T  T  T                    
----------------------------------------| 
----------------------------------------| 
----------------------------------------| 
--0--0--0--0--0--0--0----0--0--0--0--0--| 
--0--0--0--0--0--0--0----0--0--0--0--0--| 
--0--0--0--0--0--0--0----0--0--0--0--0--| 


                                            
    T  T  T  T                     H                     
----------------------------------------|-------------------------| 
----------------------------------------|--6--------/15----L--10--| 
----------------------------------------|-------------------------| 
--8--8--8--8--8--8--8----8--8--7--7--7--|-------------------------| 
--8--8--8--8--8--8--8----8--8--7--7--7--|-------------------------| 
--8--8--8--8--8--8--8----8--8--7--7--7--|-------------------------| 


   H                       W                    H                  
-------------------------|--------------------|----------------------| 
--11--------/15----13----|--\6----------------|--\3--------6----8----| 
-------------------------|--------------------|----------------------| 
-------------------------|--------------------|----------------------| 
-------------------------|--------------------|----------------------| 
-------------------------|--------------------|----------------------| 


                                               
----------------------------------|------------------------------------------| 
----------------------------------|------------------------------------------| 
--7-7-7-7-7-7-7-7-9-9-9-9-9-9-9-9-|--10-10-10-10-10-10-10-10-6-6-6-6-6-6-6-6-| 
--x-x-x-x-x-x-x-x-x-x-x-x-x-x-x-x-|---x--x--x--x--x--x--x--x-x-x-x-x-x-x-x-x-| 
--5-5-5-5-5-5-5-5-7-7-7-7-7-7-7-7-|---8--8--8--8--8--8--8--8-4-4-4-4-4-4-4-4-| 
----------------------------------|------------------------------------------| 


                                       
--------5-6-5---5------6----|--5--------------6-5---5-| 
--8---8-------8-------------|-------6----8--------8---| 
----7-------------7---------|-------------------------| 
----------------------------|-------------------------| 
----------------------------|-------------------------| 
----------------------------|-------------------------| 


                                             
--------5-6-5---5------6----|--5---------13-12----------------| 
--8---8-------8-------------|-------6----------13-------------| 
----7-------------7---------|---------------------14----------| 
----------------------------|------------------------15-14--L-| 
----------------------------|---------------------------------| 
----------------------------|---------------------------------| 


                    
----------------------------------| 
----------------------------------| 
--7-7-7-7-7-7-7-7-9-9-9-9-9-9-9-9-| 
--x-x-x-x-x-x-x-x-x-x-x-x-x-x-x-x-| 
--5-5-5-5-5-5-5-5-7-7-7-7-7-7-7-7-| 
----------------------------------| 


                                                   
----------------------------------------------|--------5-6-5---5------6----| 
--------------------------11-11-11-11-8-8-8-8-|--8---8-------8-------------| 
--10-10-10-10-10-10-10-10--x--x--x--x-x-x-x-x-|----7-------------7---------| 
---x--x--x--x--x--x--x--x--8--8--8--8-5-5-5-5-|----------------------------| 
---8--8--8--8--8--8--8--8---------------------|----------------------------| 
----------------------------------------------|----------------------------| 


                                                        
--5--------------6-5---5-|----|------------------------------13--12------| 
-------6----8--------8---|----|--------------13----------------------14--| 
-------------------------|----|--14-13-14-16----16-14-13-14--------------| 
-------------------------|----|------------------------------------------| 
-------------------------|----|------------------------------------------| 
-------------------------|----|------------------------------------------| 


                                
--13-10----10-13-10----10-12-8----8-12-8-12-8-| 
--------10----------10---------10-------------| 
----------------------------------------------| 
----------------------------------------------| 
----------------------------------------------| 
----------------------------------------------| 


                              
--------------------------------------| 
--------------------------------------| 
----------15--14-12-14------12--------| 
------15----------------15------15-14-| 
--13----------------------------------| 
--------------------------------------| 


                                 
      T  T                  
-----------------------------------------| 
-----------------------------------------| 
--7--7--7--7--7--------------------------| 
--7--7--7--7--7--------------------------| 
--5--5--5--5--5--------------------------| 
-----------------------------------------| 


                           
      T  T             T  T       T  T      
-------------------------------------------------------| 
-------------------------------------------------------| 
-------------------------10-10-10-10-10-9--9--9--9--9--| 
--8--8--8--8--8----------10-10-10-10-10-9--9--9--9--9--| 
--8--8--8--8--8-----------8--8--8--8--8-7--7--7--7--7--| 
--8--8--8--8--8----------------------------------------| 


                                
        T  T                 
------------------------------------------| 
------------------------------------------| 
--7--7--7--7--7--7------------------------| 
--7--7--7--7--7--7------------------------| 
--5--5--5--5--5--5------------------------| 
------------------------------------------| 


                           
      T  T             T  T       T  T      
-------------------------------------------------------| 
-------------------------------------------------------| 
-------------------------10-10-10-10-10-9--9--9--9--9--| 
--8--8--8--8--8----------10-10-10-10-10-9--9--9--9--9--| 
--8--8--8--8--8-----------8--8--8--8--8-7--7--7--7--7--| 
--8--8--8--8--8----------------------------------------| 


                    
                                    
--------------------------------------------------| 
--------------------------------------------------| 
--7--7--7--7--7--7--7--7--10-10-10-10-10-10-10-10-| 
--7--7--7--7--7--7--7--7--10-10-10-10-10-10-10-10-| 
--5--5--5--5--5--5--5--5---8--8--8--8--8--8--8--8-| 
--------------------------------------------------| 


                      
                       T  T       T  T      
--------------------------------------------------------| 
--------------------------------------------------------| 
--------------------------10-10-10-10-10-9--9--9--9--9--| 
--8--8--8--8--8--8--8--8--10-10-10-10-10-9--9--9--9--9--| 
--8--8--8--8--8--8--8--8---8--8--8--8--8-7--7--7--7--7--| 
--8--8--8--8--8--8--8--8--------------------------------| 


                    
                                    
--------------------------------------------------| 
--------------------------------------------------| 
--7--7--7--7--7--7--7--7--10-10-10-10-10-10-10-10-| 
--7--7--7--7--7--7--7--7--10-10-10-10-10-10-10-10-| 
--5--5--5--5--5--5--5--5---8--8--8--8--8--8--8--8-| 
--------------------------------------------------| 


                                           PH                  
                                                                     |--3--|   
                              H                           
------------------------------------------|-------------<>13b----L--15-13-12-| 
------------------------------------------|--13b-----------------------------| 
------------------------------------------|----------------------------------| 
--8--8--8--8--8--8--8--8--8-8-8-8-8-8-8-8-|----------------------------------| 
--8--8--8--8--8--8--8--8--8-8-8-8-8-8-8-8-|----------------------------------| 
--8--8--8--8--8--8--8--8--8-8-8-8-8-8-8-8-|----------------------------------| 


                                  
-----------12-13------------------------------| 
--13----13-------15-13------------------------| 
-----12----------------14-12------------------| 
-----------------------------15-14------------| 
-----------------------------------15-12--L\--| 
----------------------------------------------| 


   T        T        T        T        T            
                                    
--------------------------------------------------| 
--20-15-13----------------------------------------| 
-----------21-17-14-19-14-12-------------------14-| 
-----------------------------22-17-14-19-15-12----| 
--------------------------------------------------| 
--------------------------------------------------| 


            |--3--|     |--3--|  |--3--|         
                                    
-----------------------------------------------| 
-----------------------------------------------| 
--12----14-12-14-12-10-------------------------| 
-----------------------15-14-12-11-12-14-11----| 
-----------------------------------------------| 
-----------------------------------------------| 


   |--3--|  |--3--|  |--3--|  |--3--|  |--3--|  |--3--|                          
                                       T  T  T  T  T  T  T  T  
--------------------------------12-13-12----------------------12-13-15-13-12---- 
-----------15----------------15----------15----------------15----------------15- 
--------14----14----------14----------------14----------14---------------------- 
-----15----------15----15----------------------15----15------------------------- 
--17----------------17----------------------------17---------------------------- 
-------------------------------------------------------------------------------- 


   |--3--|  |--3--|  |--3--|  |--3--|               
                                      
--15-12----------------------12-13-15-18----15----| 
--------13----------------13----------------------| 
-----------14----------14-------------------------| 
--------------15-14-15----------------------------| 
--------------------------------------------------| 
--------------------------------------------------| 


                               
--------------13------------------13----| 
--15-13-15-17----17-15-17-15------------| 
------------------------------15--------| 
----------------------------------------| 
----------------------------------------| 
----------------------------------------| 


   T  T  T  T  T  T  T  T  T  T  T  T  T  T  T  T  T  T  T  T  T  T  T  T  T  T  
--17-13----------------------------13-17-13----13-22-17------------------------- 
--------15----------------------15----------15----------18---------------------- 
-----------14----------------14----------------------------19----------------19- 
--------------15----------15----------------------------------19----------19---- 
-----------------17-15-17----------------------------------------20-17-20------- 
-------------------------------------------------------------------------------- 


   W                                                          
--21b----------------|-------------------|--------5-6-5---5------6----| 
---------------------|-------------------|--8---8-------8-------------| 
---------------------|-------------------|----7-------------7---------| 
---------------------|-------------------|----------------------------| 
---------------------|-------------------|----------------------------| 
---------------------|-------------------|----------------------------| 


                                       
--5--------------6-5---5-|--------5-6-5---5------6----| 
-------6----8--------8---|--8---8-------8-------------| 
-------------------------|----7-------------7---------| 
-------------------------|----------------------------| 
-------------------------|----------------------------| 
-------------------------|----------------------------| 


                                             
--5---------13-12----------------|----------------------------------| 
-------6----------13-------------|----------------------------------| 
---------------------14----------|--7-7-7-7-7-7-7-7-9-9-9-9-9-9-9-9-| 
------------------------15-14--L-|--x-x-x-x-x-x-x-x-x-x-x-x-x-x-x-x-| 
---------------------------------|--5-5-5-5-5-5-5-5-7-7-7-7-7-7-7-7-| 
---------------------------------|----------------------------------| 


                                
----------------------------------------------| 
--------------------------11-11-11-11-8-8-8-8-| 
--10-10-10-10-10-10-10-10--x--x--x--x-x-x-x-x-| 
---x--x--x--x--x--x--x--x--8--8--8--8-5-5-5-5-| 
---8--8--8--8--8--8--8--8---------------------| 
----------------------------------------------| 


                                                             
-----------15-17-15----15---------18----|--17----13----15\-----------|-----|| 
--18-17-18----------18----18--15--------|----------------------------|-----|| 
----------------------------------------|----------------------------|-----|| 
----------------------------------------|----------------------------|-----|| 
----------------------------------------|----------------------------|-----|| 
----------------------------------------|----------------------------|-----|| 


Guitar 3 

(00:20)  
                                   H                     
D||-------|-------|-------|-------|--5--------/13----L--10--| 
A||-------|-------|-------|-------|-------------------------| 
F||-------|-------|-------|-------|-------------------------| 
C||-------|-------|-------|-------|-------------------------| 
G||-------|-------|-------|-------|-------------------------| 
C||-------|-------|-------|-------|-------------------------| 


   H                       H                     H                  
--12--------/18----17----|--17--------12----10----|--L--------5----9----| 
-------------------------|------------------------|---------------------| 
-------------------------|------------------------|---------------------| 
-------------------------|------------------------|---------------------| 
-------------------------|------------------------|---------------------| 
-------------------------|------------------------|---------------------| 


(01:14) 

                                                 H                     
-------|-------|-------|-------|-------|-------|--5--------/13----L--10--| 
-------|-------|-------|-------|-------|-------|-------------------------| 
-------|-------|-------|-------|-------|-------|-------------------------| 
-------|-------|-------|-------|-------|-------|-------------------------| 
-------|-------|-------|-------|-------|-------|-------------------------| 
-------|-------|-------|-------|-------|-------|-------------------------| 


   H                       H                     H                  
--12--------/18----17----|--17--------12----10----|--L--------5----9----| 
-------------------------|------------------------|---------------------| 
-------------------------|------------------------|---------------------| 
-------------------------|------------------------|---------------------| 
-------------------------|------------------------|---------------------| 
-------------------------|------------------------|---------------------| 


                            
------------------------------------------| 
--10-10-10-10-10-10-10-10-8-8-8-8-8-8-8-8-| 
---x--x--x--x--x--x--x--x-x-x-x-x-x-x-x-x-| 
---7--7--7--7--7--7--7--7-5-5-5-5-5-5-5-5-| 
------------------------------------------| 
------------------------------------------| 


                            
--------------------------9-9-9-9-9-9-9-9-| 
--10-10-10-10-10-10-10-10-x-x-x-x-x-x-x-x-| 
---x--x--x--x--x--x--x--x-6-6-6-6-6-6-6-6-| 
---7--7--7--7--7--7--7--7-----------------| 
------------------------------------------| 
------------------------------------------| 


                                                        
--------------------------------------|--------------------------------| 
-----------11-13-11----11-------15----|--13----------11----13-11----11-| 
--14----14----------14----------------|--------14----------------14----| 
-----15-------------------15----------|--------------------------------| 
--------------------------------------|--------------------------------| 
--------------------------------------|--------------------------------| 


                                                         
--------------------------------------|--------------17-15----------------| 
-----------11-13-11----11-------15----|--13----------------17-------------| 
--14----14----------14----------------|--------14-------------17----------| 
-----15-------------------15----------|--------------------------19-17--L-| 
--------------------------------------|-----------------------------------| 
--------------------------------------|-----------------------------------| 


                                              
-------|-------|--------------------------------------| 
-------|-------|-----------11-13-11----11-------15----| 
-------|-------|--14----14----------14----------------| 
-------|-------|-----15-------------------15----------| 
-------|-------|--------------------------------------| 
-------|-------|--------------------------------------| 


                                                                        
--------------------------------|----|----|----|----|----|----|----|----|----| 
--13----------11----13-11----11-|----|----|----|----|----|----|----|----|----| 
--------14----------------14----|----|----|----|----|----|----|----|----|----| 
--------------------------------|----|----|----|----|----|----|----|----|----| 
--------------------------------|----|----|----|----|----|----|----|----|----| 
--------------------------------|----|----|----|----|----|----|----|----|----| 


(02:50) 

                                                        
--------------------------------------|--------------------------------| 
-----------11-13-11----11-------15----|--13----------11----13-11----11-| 
--14----14----------14----------------|--------14----------------14----| 
-----15-------------------15----------|--------------------------------| 
--------------------------------------|--------------------------------| 
--------------------------------------|--------------------------------| 


                                                         
--------------------------------------|--------------17-15----------------| 
-----------11-13-11----11-------15----|--13----------------17-------------| 
--14----14----------14----------------|--------14-------------17----------| 
-----15-------------------15----------|--------------------------19-17--L-| 
--------------------------------------|-----------------------------------| 
--------------------------------------|-----------------------------------| 


                                               
-------|-------|--------------13------------------13----| 
-------|-------|--15-13-15-17----17-15-17-15------------| 
-------|-------|------------------------------15--------| 
-------|-------|----------------------------------------| 
-------|-------|----------------------------------------| 
-------|-------|----------------------------------------| 


                              
----------------------------|----|| 
--13------------------------|----|| 
--------14----12\-----------|----|| 
----------------------------|----|| 
----------------------------|----|| 
----------------------------|----|| 
 
	  

Search Paypal
auto scroll beats size up size down change color hide chords drawings
tab show chords e-chords YouTube Clip e-chords hide all tabs e-chords go to top tab