Black Tide

Black Abyss

Black Tide

tabs Advanced advanced

by  INDESTRUCTIBLE

save to print version add songbook text version e-mail correct tuner
chordsukulelecavacokeyboardtabbassdrumsharmonicaflute Guitar Pro
close

there isn't a video lesson for this song

chords

Black Abyss

	  		   Intro 
E---------------------------------------| 
B---------------------------------------| 
G---------------------------------------| 
D-2-2-2-2-2-----------2-2-2-2-2-4-4-4-4-| 
A-0-0-0-0-0-3-3-3-3-3-2-2-2-2-2-2-2-2-2-| 
E-----------1-1-1-1-1-0-0-0-0-0-2-2-2-2-| 

   Verse 
E-------------------------------------| 
B-------------------------------------| 
G-------------------------------------| 
D-------------------------------------| 
A-------------2-2-2-2-2-2-------------| 
E-3-3-3-3-3-3-------------0-0-0-0-0-0-| 

  Bridge 
E-------------------| 
B-------------------| 
G-------------------| 
D-------------------| 
A-2-2-2-2-0-0-0-0-0-| 
E-0-0-0-0-2-2-2-2-2-| 

  Chorus 
E 
B---------------------------------| 
G---------------------------------| 
D-------------2-2-2-2-2-2-2-2-2-2-| 
A-3-3-3-3-3-3-2-2-2-2-2-0-0-0-0-0-| 
E-1-1-1-1-1-1-0-0-0-0-0-----------| 
		  

Full key step upFull key step up
Half key step upHalf key step up
Half key step downHalf key step down
Full key step downFull key step down
hide glossary

See also:

tabs Pantera - Cemetary Gates tabs Twisted Syster - Were not gonna take tabs Marilyn Manson - Disposable Teens tabs Dream Theater - Endless Sacrifice tabs Manowar - Brothers Of Metal tabs Alice Cooper - Poison
e-chords

Other versions:

tabs Black Tide - Black Abyss
auto scroll beats size up size down change color hide chords drawings
tab show chords e-chords YouTube Clip e-chords hide all tabs e-chords go to top tab

share