Black Sabbath

home > Black Sabbath

Kiss Of Death Tab

Black Sabbath

Difficulty: nolevelnolevel

tuner correct add songbook print version text version save to e-mail
chordsukulelecavacokeyboardtabbassdrumsharmonicsflute Guitar Pro
chords

Kiss Of Death

Year: 1995 - Album: Forbidden

  		 
h	 :: hammer-on 
p        :: pull-off 
~	 :: vibrato 
...	 :: você não é quadrado(a)! 
PM	 :: não precisa correr! é (P)alm-(M)ute 
 
bom, antes de começar afina 1/2 tom abaixo 
 
*Ah: você pode descer a 6ª corda 1 tom, caso tenha problemas e não consiga 
 um som legal principalmente com a parte dedilhada... ai basta usar um 
 capotraste(alguns chamam de braçadeira) no 2º fret da tua guitarra 
 ou violão... mas tenta tocar normal, dá mais liberdade!... 
 
{intro & verso limpo I} 
 
|------------2--------------2--------------- 
|-------5------3-------5------3--------5--5- 
|---4-4----4-------4-4----4----------4---4-- 
|-2--------------2-------------4h5-5-------- 
|------------------------------------------- 
|------------------------------------------- 
                                E 
 ----------------------|     |------| 
 -------5----8-7h8p7---|     |----5-| 
 -----4---4----------7-|     |---4--| 
 -4h5------------------|     |--2---| (deixa soar) 
 ----------------------| ... |------| 
 ----------------------|     |------| 
 
{parte heavy I} 
 
|-------------------------| 
|-------------------------| 
|-------------------------| 
|-2-2----------------2-2--| 
|-2-2--4-4-5-5-7-7-9-2-2--| 
|-0-0--2-2-3-3-5-5-7-0-0--| 
  	 
|---------------------------------------------------| 
|---------------------------------------------------| 
|------------------------0h2p0-2~~~~----------------| 
|-2-2----------------2-2----------------------------| 
|-2-2--4-4-5-5-7-7-9-2-2----------------------------| 
|-0-0--2-2-3-3-5-5-7-0-0----------------------------| 
 
|---------------------------------------------------| 
|---------------------------------------------------| 
|---------------------------------------------------| 
|-2-2----------------2-2--7-7-7---------------------| 
|-2-2--4-4-5-5-7-7-9-2-2--5-5-5---------------------| 
|-0-0--2-2-3-3-5-5-7-0-0----------------------------| 
 
{verso limpo II}(um pouco de palm mute aqui fica legal!) 
 
|-----------------------------------------------------------| 
|-----------------------------------------------------------| 
|-----4---5...------4-4-2----------------4-4-5-5-6-6-5-5----| 
|-----2---2...------2-2---4-0------------2-2-2-2-2-2-2-2----| 
|-----2---2...------2-2-------0h2--------2-2-2-2-2-2-2-2----| 
|-0-0---0-------0-0---------------0--0-0--------------------| 
			 
 
{ainda limpo} 
 
|---------------| 
|---------------| 
|------12-12-10-| 
|-7...-12-12-10-| 
|-7...-10-10-8--| 
|-5...----------| 
 
{parte heavy II} 
                          PM   já na segunda vez enfia isso aqui no começo... 
|-----------------------------|-----| 
|-----------------------------|-----| 
|-----------------------------|-----| 
|-2-2--14-13-12-5--9--7---9-9-|-0-2-| 
|-2-2--12-11-10-3--7--5---7-7-|-0-2-| 
|-0-0---------------------0-0-|---0-| 
 
{parte heavy III} 
 
|----------------------------------------------------| 
|-------------------------------------12-12-12-12-12-| 
|-------------------------------------12-12-12-12-12-| 
|-------------------------------------12-12-12-12-12-| 
|----------------------------------------------------| 
|-3-0-3-0-3~~~-6~~-5~~-5-7-6--3~~-5~~----------------| 
 (___________________________________) 
   ______________^ 
  | 
  |___|putz eu não tô com a guitarra aqui, 
      | posso ter comido alguma nota, dá uma ouvida no CD!| 
      |diria que é mais ou menos esse o desenho do movimento. =) 		             |	 
 
{quando o vocal vier você mistura isso} 
 
|-----------------------------| 
|-----------------------------| 
|-----------------------------| 
|-7...------{parte heavy III}-| 
|-5...-6...-------------------| 
|------4...-------------------| 
 
depois volta a "{parte heavy II}" e bom, 
você já tem tudo pra continuar tocando... e é isso! 
 
 
_______________________________________________________ 
Contribuição: Rafael Santiago([email protected]) 

	  

Full key step upFull key step up
Half key step upHalf key step up
Half key step downHalf key step down
Full key step downFull key step down
Search Paypal
auto scroll beats size up size down change color hide chords drawings
tab show chords e-chords YouTube Clip e-chords hide all tabs e-chords go to top tab