Being As An Ocean

We Drag The Dead On Leashes

Being As An Ocean

tabs

by  TAMAMOREIRA

save to print version add songbook text version e-mail correct tuner
chordsukulelecavacokeyboardtabbassdrumsharmonicaflute Guitar Pro
close

there isn't a video lesson for this song

chords

We Drag The Dead On Leashes

	  		
Intro: (0:05) 
                                                x2 
e|-----------------------------------------------| 
B|-----------------------------------------------| 
G|-----------------------------------------------| 
D|--------4--------4--------4--------4--------0--| 
A|-----5--------5--------5--------5--------7-----| 
D|--5--------5--------5--------5--------7--------| 


Verse (0:12) 

    "We've all done things that we're ashamed of..." 
                                                x3 
e|-----------------------------------------------| 
B|-----------------------------------------------| 
G|-----------------------------------------------| 
D|--------4--------4--------4--------4--------0--| 
A|-----5--------5--------5--------5--------7-----| 
D|--5--------5--------5--------5--------7--------| 

e|-----------------------------------------------| 
B|-----------------------------------------------| 
G|-----------------------------------------------| 
D|--------4--------4--------4--------4--------7--| 
A|-----5--------5--------5--------5--------9-----| 
D|--5--------5--------5--------5--------9--------| 

  (Repeat Verse once again) 


Post Verse (0:39) 

e|------------------------------------------| 
B|------------------------------------------| 
G|------------------------------------------| 
D|------------------------------------------| 
A|------------------------------------------| 
D|--(5)----(7)--(9)------(12)---(9)----(7)--| 


Chorus (0:49) (Strum each chord noted twice) 

    "And it seems we've been thrown into an endless cycle..." 

e|-----------------------------------| 
B|-----------------------------------| 
G|-----------------------------------| 
D|-----------------------------------| 
A|--5-5-5-5-5-5-7-7-9-9-9-9-9-9-9-9--| 
D|--5-5-5-5-5-5-7-7-9-9-9-9-9-9-9-9--| 

e|----------------------------------|------------------| 
B|----------------------------------|------------------| 
G|----------------------------------|------------------| 
D|----------------------------------|------------------| 
A|--5-5-5-5-5-5-7-7-9-9-9-9-9-9-9-9-|-7-7-7-7-7-7-7-7--| 
D|--5-5-5-5-5-5-7-7-9-9-9-9-9-9-9-9-|-7-7-7-7-7-7-7-7--| 

    "Forget the things you hate in yourself..." 

e|-----------------------------------| 
B|-----------------------------------| 
G|-----------------------------------| 
D|-----------------------------------| 
A|--5-5-5-5-5-5-7-7-9-9-9-9-9-9-9-9--| 
D|--5-5-5-5-5-5-7-7-9-9-9-9-9-9-9-9--| 

e|----------------------------------|------------------| 
B|----------------------------------|------------------| 
G|----------------------------------|------------------| 
D|----------------------------------|------------------| 
A|--5-5-5-5-5-5-7-7-9-9-9-9-9-9-9-9-|-7-7-7-7-7-7-7-7--| 
D|--5-5-5-5-5-5-7-7-9-9-9-9-9-9-9-9-|-7-7-7-7-7-7-7-7--| 


Re-Intro (1:22) 
                                                x2 
e|-----------------------------------------------| 
B|-----------------------------------------------| 
G|-----------------------------------------------| 
D|--------4--------4--------4--------4--------0--| 
A|-----5--------5--------5--------5--------7-----| 
D|--5--------5--------5--------5--------7--------| 

Verse (1:35) (Played twice) 

    "We turn to others for some kind of safety..." 
                                                x3 
e|-----------------------------------------------| 
B|-----------------------------------------------| 
G|-----------------------------------------------| 
D|--------4--------4--------4--------4--------0--| 
A|-----5--------5--------5--------5--------7-----| 
D|--5--------5--------5--------5--------7--------| 

e|-----------------------------------------------| 
B|-----------------------------------------------| 
G|-----------------------------------------------| 
D|--------4--------4--------4--------4--------7--| 
A|-----5--------5--------5--------5--------9-----| 
D|--5--------5--------5--------5--------9--------| 


Interlude (2:02) 

    "AND IN THE END..." 

e|--------------------------------------------------------------------------------------------| 
B|--------------------------------------------------------------------------------------------| 
G|--------------------------------------------------------------------------------------------| 
D|--9-9-9-9-9-9-9-9----9-9-9-9-9-9-9-9----12-12-12-12-12-12-12-12----11-11-11-11-11-11-11-11--| 
A|--5-5-5-5-5-5-5-5----5-5-5-5-5-5-5-5----9--9--9--9--9--9--9--9-----7--7--7--7--7--7--7--7---| 
D|--5-5-5-5-5-5-5-5----5-5-5-5-5-5-5-5----9--9--9--9--9--9--9--9-----7--7--7--7--7--7--7--7---| 


Chorus (2:15) (Strum each chord noted twice) 

    "Forget the things you hate in yourself..." 

e|-----------------------------------| 
B|-----------------------------------| 
G|-----------------------------------| 
D|-----------------------------------| 
A|--5-5-5-5-5-5-7-7-9-9-9-9-9-9-9-9--| 
D|--5-5-5-5-5-5-7-7-9-9-9-9-9-9-9-9--| 

e|----------------------------------|------------------| 
B|----------------------------------|------------------| 
G|----------------------------------|------------------| 
D|----------------------------------|------------------| 
A|--5-5-5-5-5-5-7-7-9-9-9-9-9-9-9-9-|-7-7-7-7-7-7-7-7--| 
D|--5-5-5-5-5-5-7-7-9-9-9-9-9-9-9-9-|-7-7-7-7-7-7-7-7--| 

    "Forget the things you hate in yourself..." 

e|-----------------------------------| 
B|-----------------------------------| 
G|-----------------------------------| 
D|-----------------------------------| 
A|--5-5-5-5-5-5-7-7-9-9-9-9-9-9-9-9--| 
D|--5-5-5-5-5-5-7-7-9-9-9-9-9-9-9-9--| 

e|----------------------------------|------------------| 
B|----------------------------------|------------------| 
G|----------------------------------|------------------| 
D|----------------------------------|------------------| 
A|--5-5-5-5-5-5-7-7-9-9-9-9-9-9-9-9-|-7-7-7-7-7-7-7-7--| 
D|--5-5-5-5-5-5-7-7-9-9-9-9-9-9-9-9-|-7-7-7-7-7-7-7-7--| 


Outro (2:48) (Guitar is backtracked. Will be added soon) 




------------------ 
  NON-REPEAT TAB   
------------------ 


Intro (0:05) 
                                                x2 
e|-----------------------------------------------| 
B|-----------------------------------------------| 
G|-----------------------------------------------| 
D|--------4--------4--------4--------4--------0--| 
A|-----5--------5--------5--------5--------7-----| 
D|--5--------5--------5--------5--------7--------| 


Verse (0:12) (Played twice) 

    "We've all done things that we're ashamed of..." 
                                                x3 
e|-----------------------------------------------| 
B|-----------------------------------------------| 
G|-----------------------------------------------| 
D|--------4--------4--------4--------4--------0--| 
A|-----5--------5--------5--------5--------7-----| 
D|--5--------5--------5--------5--------7--------| 

e|-----------------------------------------------| 
B|-----------------------------------------------| 
G|-----------------------------------------------| 
D|--------4--------4--------4--------4--------7--| 
A|-----5--------5--------5--------5--------9-----| 
D|--5--------5--------5--------5--------9--------| 


Post Verse (0:39) 

e|------------------------------------------| 
B|------------------------------------------| 
G|------------------------------------------| 
D|------------------------------------------| 
A|------------------------------------------| 
D|--(5)----(7)--(9)------(12)---(9)----(7)--| 


Chorus (0:49) (Strum each chord noted twice) 

    "And it seems we've been thrown into an endless cycle..." 

e|-----------------------------------| 
B|-----------------------------------| 
G|-----------------------------------| 
D|-----------------------------------| 
A|--5-5-5-5-5-5-7-7-9-9-9-9-9-9-9-9--| 
D|--5-5-5-5-5-5-7-7-9-9-9-9-9-9-9-9--| 

e|----------------------------------|------------------| 
B|----------------------------------|------------------| 
G|----------------------------------|------------------| 
D|----------------------------------|------------------| 
A|--5-5-5-5-5-5-7-7-9-9-9-9-9-9-9-9-|-7-7-7-7-7-7-7-7--| 
D|--5-5-5-5-5-5-7-7-9-9-9-9-9-9-9-9-|-7-7-7-7-7-7-7-7--| 

    "Forget the things you hate in yourself..." 

e|-----------------------------------| 
B|-----------------------------------| 
G|-----------------------------------| 
D|-----------------------------------| 
A|--5-5-5-5-5-5-7-7-9-9-9-9-9-9-9-9--| 
D|--5-5-5-5-5-5-7-7-9-9-9-9-9-9-9-9--| 

e|----------------------------------|------------------| 
B|----------------------------------|------------------| 
G|----------------------------------|------------------| 
D|----------------------------------|------------------| 
A|--5-5-5-5-5-5-7-7-9-9-9-9-9-9-9-9-|-7-7-7-7-7-7-7-7--| 
D|--5-5-5-5-5-5-7-7-9-9-9-9-9-9-9-9-|-7-7-7-7-7-7-7-7--| 


Re-Intro (1:22) 

Verse (1:35) 

Interlude (2:02) 

    "AND IN THE END..." 

e|--------------------------------------------------------------------------------------------| 
B|--------------------------------------------------------------------------------------------| 
G|--------------------------------------------------------------------------------------------| 
D|--9-9-9-9-9-9-9-9----9-9-9-9-9-9-9-9----12-12-12-12-12-12-12-12----11-11-11-11-11-11-11-11--| 
A|--5-5-5-5-5-5-5-5----5-5-5-5-5-5-5-5----9--9--9--9--9--9--9--9-----7--7--7--7--7--7--7--7---| 
D|--5-5-5-5-5-5-5-5----5-5-5-5-5-5-5-5----9--9--9--9--9--9--9--9-----7--7--7--7--7--7--7--7---| 


Chorus (2:15) 

Outro (2:48) (Guitar is backtracked. Will be added soon) 


************************************ 

 /   slide up 
 \   slide down 
 h   hammer-on 
 p   pull-off 
 ~   vibrato 
 +   harmonic 
 x   Mute note 
 b   Bend 
 pb  Pre-bend 
 br  Bend release 
 pbr Pre-bend release 
 brb Bend release bend 

************************************ 
		  

See also:

tabs Bon Jovi - It's My Life tabs Kiss - Forever tabs Aerosmith - Dream On tabs Foo Fighters - Everlong (acústico) tabs The Doors - People Are Strange tabs The Offspring - All I Want
e-chords

Other versions:

tabs Being As An Ocean - We Drag The Dead On Leashes
auto scroll beats size up size down change color hide chords drawings
tab show chords e-chords YouTube Clip e-chords hide all tabs e-chords go to top tab

share