Beethoven

home > Beethoven

Ode to joy Tab

Beethoven

Difficulty: BeginnerBeginner

by topherh

tuner correct add songbook print version text version save to e-mail
chordsukulelecavacokeyboardtabbassdrumsharmonicsflute Guitar Pro
chords

Ode to joy

  		Play this on the top three strings its realy easy when you get the hang of it 
get the hang of it  
if it sounds plain throw in some C chords or G chords to exite it 
 
e----0-0-1-3-3-1-0---------0-0---- 
B------------------3-1-1-3-----3-3 
 
e0-0-1-3-3-1-0---------0------ 
B--------------3-1-1-3---3-1-1 
 
e----0-----0-1-0-----0-1-0 
B3-3---1-3-------1-3-------3-1-3 
G--------------------------------0 
 
e0-0-1-3-3-1-0---------0------ 
B--------------3-1-1-3---3-1-1 

	  

Search Paypal
auto scroll beats size up size down change color hide chords drawings
tab show chords e-chords YouTube Clip e-chords hide all tabs e-chords go to top tab