Beethoven

home > Beethoven

Beethoven Virus Tab

Beethoven

Difficulty: ExpertExpert

by kalyne26

tuner correct add songbook print version text version save to e-mail
chordsukulelecavacokeyboardtabbassdrumsharmonicsflute Guitar Pro
chords

Beethoven Virus

  		e---5-7-8---8-10-7--7-8-----------------8-10- 
b-5---------------------10---10-9-10-12--- 

e-12-12-12-12----12--10-12-13----------10-------- 
b----------------------------12--13------------ 

e-12------------------10----------------5-7-8--8-10-7--7-8- 
b-----10--10-12-13-13----12-12-13-10--5-------------------- 

e-----------------8-10---12-12-12-12---12--10-12-13------- 
b-10---10-9-10-12---------------------------------- 

e-------10-12-----------------10--------------------- 
b-12-13-------10--10-12-13-13----12-12-13-10--10-9-10- 

e----------------12-10-10-8--------------------- 
b-12-------12---------------12-10-10-12-13-10-12----------12----15- 
g----9-8-9----9----------------------------------12-11-12----12-- 

Depois eu ponho o resto galera.. 
	  

Search Paypal
auto scroll beats size up size down change color hide chords drawings
tab show chords e-chords YouTube Clip e-chords hide all tabs e-chords go to top tab