Beethoven

home > Beethoven

Nona Sinfonia Tab

Beethoven

Difficulty: BeginnerBeginner

by Electro

tuner correct add songbook print version text version save to e-mail
chordsukulelecavacokeyboardtabbassdrumsharmonicsflute Guitar Pro
chords

Nona Sinfonia

  		PRIMEIRA PARTE   
   
  C       G         C          G C   
E-0-0-1-3-3-1-0------------0-0------------------------   
B----------------3--1-1-3------3-3--------------------   
G-----------------------------------------------------   
D-----------------------------------------------------   
A-----------------------------------------------------   
E-----------------------------------------------------   
   
  C       G         C          G  C   
E-0-0-1-3-3-1-0------------0--------------------------   
B----------------3--1-1-3------3--1-1-----------------  
G-----------------------------------------------------   
D-----------------------------------------------------   
A-----------------------------------------------------   
E-----------------------------------------------------   
   
   
   
   
   
  G C     G     C    G       C     F       G   
E---0-----0--1--0--------0-1-0------------------------   
B-33--1-3----------1--3---------3--1--3---------------   
G------------------------------------------0----------   
D-----------------------------------------------------   
A-----------------------------------------------------   
E-----------------------------------------------------   
   
REPETE PRIMEIRA PARTE   



	  

Full key step upFull key step up
Half key step upHalf key step up
Half key step downHalf key step down
Full key step downFull key step down
Search Paypal
auto scroll beats size up size down change color hide chords drawings
tab show chords e-chords YouTube Clip e-chords hide all tabs e-chords go to top tab