Beethoven

home > Beethoven

Novena Sinfonia Tab

Beethoven

Difficulty: ExpertExpert

by aleffederico

tuner correct add songbook print version text version save to e-mail
chordsukulelecavacokeyboardtabbassdrumsharmonicsflute Guitar Pro
chords

Novena Sinfonia

  		1/-------------------------------(-----------------------------) 
2/-0-1-3-3-1-0---------0-0-------(--0-1-3-3-1-0---------0------) 
3/-------------2-0-0-2-----2-2---(--------------2-0-0-2---2-0-0) 
4/-------------------------------------------------------------- 
5/-------------------------------------------------------------- 
6/-------------------------------------------------------------- 

1/----------------------------------- 
2/---0----0-1-0-----0-1-0------------  (se repite el parentesis) 
3/--2-0-2-------0-2------2-0-2------- 
4/-----------------------------0----- 
5/----------------------------------- 
6/----------------------------------- 
	  

Search Paypal
auto scroll beats size up size down change color hide chords drawings
tab show chords e-chords YouTube Clip e-chords hide all tabs e-chords go to top tab