Beethoven

home > Beethoven

9 Sinfonia No Tom De G Tab

Beethoven

Difficulty: nolevelnolevel

by paulantunes

tuner correct add songbook print version text version save to e-mail
chordsukulelecavacokeyboardtabbassdrumsharmonicsflute Guitar Pro
chords

9 Sinfonia No Tom De G

  		E|---------------------------------------------------------| 
B|0-0-1-3-3-1-0---------0-0--------------------------------| 
G|--------------2-0-0-2-----2-2----------------------------| 
D|---------------------------------------------------------| 
A|---------------------------------------------------------| 
E|---------------------------------------------------------| 

E|---------------------------------------------------------| 
B|0-0-1-3-3-1-0----------0---------------------------------| 
G|------------  2-0-0-2----2-0-0---------------------------| 
D|---------------------------------------------------------| 
A|---------------------------------------------------------| 
E|---------------------------------------------------------| 

E|---------------------------------------------------------| 
B|----0-----0-1-0-----0-1-0--------------------------------| 
G|2-2---0-2-------0-2-------2-0-2--------------------------| 
D|--------------------------------0------------------------| 
A|---------------------------------------------------------| 
E|---------------------------------------------------------| 
	  

Search Paypal
auto scroll beats size up size down change color hide chords drawings
tab show chords e-chords YouTube Clip e-chords hide all tabs e-chords go to top tab