Beethoven

home > Beethoven

Fur Elisa Tab

Beethoven

Difficulty: BeginnerBeginner

by giankorn

tuner correct add songbook print version text version save to e-mail
chordsukulelecavacokeyboardtabbassdrumsharmonicsflute Guitar Pro
chords

Fur Elisa

  		Song: Fur elisa (Guitar Tab) 
Autor: Bethoven 
Transcriptor: Gian Falzarano 
 
Im sorry for the second part, this is all i can do. enjoy! 
 
1. 
---------------------------------------------------------- 
---------------------------------------------------------- 
---------------------------------------------------------- 
---------------------------------------------------------- 
-11-12-11-12-11-7-10-8-5-0-4-5-7-0-5-7-8------------------ 
---------------------------------------------------------- 
2. 
 
---------------------------------------------------------- 
---------------------------------------------------------- 
---------------------------------------------------------- 
---------------------------------------------------------- 
-11-12-11-12-11-7-10-8-5-0-4-5-7-0-8-7-5------------------ 
---------------------------------------------------------- 
 
3. 
---------------------------------------------------------- 
---------------------------------------------------------- 
---------------------------------------------------------- 
---------------------------------------------------------- 
-5-7-8-10---12-10-8---10-8-6---8-6-4---------------------- 
----------8---------6--------4---------------------------- 
 
Order: 
 
When you finish the third part start again with the first. 
The second part of the song is fery difficoult to do in guitar. 
Sorry about that. 
 

	  

Search Paypal
auto scroll beats size up size down change color hide chords drawings
tab show chords e-chords YouTube Clip e-chords hide all tabs e-chords go to top tab