save to print version add songbook text version e-mail correct tuner
chordsukulelecavacokeyboardtabbassdrumsharmonicaflute Guitar Pro
close

there isn't a video lesson for this song

chords

Estrelas

	  		  Antes de treinar este solo, escute bastante este solo para executar legal as técnicas, principalmente os bends valeu!! 

E || ------------------------------------------------------------------------------------ 
B || -------------------------------------------8--------10b12-----10b12-10p8- 
G || ---------4-----------------4-----7------------------------------------------------ 
D || -----5---------5----7------------------------------------------------------------- 
A || ------------------------------------------------------------------------------------ 
E || ------------------------------------------------------------------------------------ 



E || ----------------------------------------------8----12-8-10----8/5------------- 
B || ---10b12-----10b12----10--------5/8----8------------------------8---5-- 
G || ------------------------------------------------------------------------------------ 
D || ------------------------------------------------------------------------------------ 
A || ------------------------------------------------------------------------------------ 
E || ------------------------------------------------------------------------------------ 




E || -------------------------------------------------------------------------------- 
B || -------------------------------------------------------------------------------- 
G || -----7---4----5--------------------------------------------------------------- 
D || ------------------7----5----7-------5---4------------------------------------ 
A || ---------------------------------------------7--5--3----2--3--5--3--2----- 
E || -------------------------------------------------------------------------------- 



E || ------------------------------------------------------------------------------- 
B || ------------------------------------------------------------------------------- 
G || ------------------------------------------------------------------------------- 
D || -----------------------------------------------------------------5--5------5- 
A || ---------------3---2------------------------5---5--------5/7---------7---- 
E || -------5---3------------5--3--2-----3---------------3--------------------- 

Enviado por Maguinho: [email protected] 

		  

See also:

tabs Heloisa Rosa - Há Um Lugar - Completo tabs Diante do Trono - A Ele a Glória tabs Heloisa Rosa - Jesus é o Caminho tabs Toque no Altar - Deus De Promessa tabs Lázaro - Eu Te Amo Tanto tabs Oficina G3 - Até quando?
e-chords

Other versions:

tabs Raízes - Estrelas tabs Banda Raízes e Serginho Herval - Estrelas
auto scroll beats size up size down change color hide chords drawings
tab show chords e-chords YouTube Clip e-chords hide all tabs e-chords go to top tab

share