Bad Religion

home > Bad Religion

Stranger than Fiction Tab

Bad Religion

Difficulty: nolevelnolevel

tuner correct add songbook print version text version save to e-mail
chordsukulelecavacokeyboardtabbassdrumsharmonicsflute Guitar Pro
chords

Stranger than Fiction

Year: 1994 - Album: Punk Rock Songs: The Epic Years

  		tabbed by Kelly Kristek 


  Dropped D tuning 

  Intro 
e:----------------------------------------| 
B:----------------------------------------| 
G:----------------------------------------| 
D:-9-9--8-8--6-6--4-4--2-2--1-1--2-2--4-4-| 
A:-9-9--8-8--6-6--4-4--2-2--1-1--2-2--4-4-| 
E:-9-9--8-8--6-6--4-4--2-2--1-1--2-2--4-4-| 


  People shock.ing riding smack....And the  children are......Heart attack 
  IF i could fly high above the world would i see a bunch of living dots..... 
  Verse 1 
e:---------------------------------------------------------------------------| 
B:---------------------------------------------------------------------------| 
G:---------------------------------------------------------------------------| 
D:-----9-9-9-9-9-9-9-9--7-7-7-7-7-7-7-7--6-6-6-6-6-6-6-6----4-4-4-4-4-4-4-4-4| 
A:-----9-9-9-9-9-9-9-9--7-7-7-7-7-7-7-7--6-6-6-6-6-6-6-6----4-4-4-4-4-4-4-4-4| 
E:-----9-9-9-9-9-9-9-9--7-7-7-7-7-7-7-7--6-6-6-6-6-6-6-6----4-4-4-4-4-4-4-4-4| 


       
       
       
    Windows are watching   The streetlights conspiring.. The lampost cant sto 
e:---------------------------------------------------------------------------| 
B:---------------------------------------------------------------------------| 
G:-----------------------------8-8-8-8-8-8-8-8-8-8-8---------9-9-9-9-9-9-9-9-| 
D:---9-9-9-9-9-9-9-9-----------8-8-8-8-8-8-8-8-8-8-8---------9-9-9-9-9-9-9-9-| 
A:---9-9-9-9-9-9-9-9-----------6-6-6-6-6-6-6-6-6-6-6---------7-7-7-7-7-7-7-7-| 
E:---9-9-9-9-9-9-9-9---------------------------------------------------------| 


                       aahhhhhhh  aaaaAHHHHh AHHHHHHHH    

  p crying                                    repeat 2x 
e:--------------------|---------------------------------| 
B:--------------------|---------------------------------| 
G:--11-11-11-11-11-11-|---------------------------------| 
D:--11-11-11-11-11-11-|-2-2-2-2-2--4-4-4-4-4--6-6-6-6-6-| 
A:--9--9--9--9--9--9--|-2-2-2-2-2--4-4-4-4-4--6-6-6-6-6-| 
E:--------------------|-2-2-2-2-2--4-4-4-4-4--6-6-6-6-6-| 


   Score.....My human interest.....Stories        And the obituary    oh yea! 
e:---------------------------------------------------------------------------| 
B:---------------------------------------------------------------------------| 
G:---------------------------------6-6-6-6-6-6-------------------------------| 
D:-2-2-2-2-2-2--1-1-1-1-1-1-1-1----6-6-6-6-6-6--4-----------------4-4-4------| 
A:-2-2-2-2-2-2--1-1-1-1-1-1-1-1----4-4-4-4-4-4--4-----------------4-4-4------| 
E:-2-2-2-2-2-2--1-1-1-1-1-1-1-1-----------------4-----------------4-4-4------| 


   cockroach naps rattling traps..How many devils 

   Figure 1                     Play intro agian 
e:|---------------------------------------------| 
B:|---------------------------------------------| 
G:|---------------------------------------------| 
D:|--9-9-9--8-8-8--6-6-6--4-4-4-----------------| 
A:|--9-9-9--8-8-8--6-6-6--4-4-4-----------------| 
E:|--9-9-9--8-8-8--6-6-6--4-4-4-----------------| 


  . Caringosity killed the kerouac cat, Sometimes truth is stranger then fict 

  Figure 2 
e:---------------------------------------------------------------------------| 
B:---------------------------------------------------------------------------| 
G:---------------------------------------------------------------------------| 
D:---9-9-9-9-7-7-7-7-7-7-7-6-6-6-4-4-4---2-2-2-2--4-4-4--2-2-2-2-2-2-2---4-4-| 
A:---9-9-9-9-7-7-7-7-7-7-7-6-6-6-4-4-4---2-2-2-2--4-4-4--2-2-2-2-2-2-2---4-4-| 
E:---9-9-9-9-7-7-7-7-7-7-7-6-6-6-4-4-4---2-2-2-2--4-4-4--2-2-2-2-2-2-2---4-4-| 


  ion.                            | 
                                  | 
           Play verse 1 after this| 
e:----|---------------------------| 
B:----|---------------------------| 
G:----|---------------------------| 
D:4-4-|-9-9-9-9-9-9-9---4-4-4-4-4-| 
A:4-4-|-9-9-9-9-9-9-9---4-4-4-4-4-| 
E:4-4-|-9-9-9-9-9-9-9---4-4-4-4-4-| 


  Bridge 

    Life is the   Crummiest book I  Ever read  There isnt a hook ....cheap sh 
e:---------------------------------------------------------------------------| 
B:-----------------------------------------------------------------------5---| 
G:---------------------------------------------------------------------6---6-| 
D:--6-x-x-6-6-6---4--4--4---4--4---2-2--2-2-2--1-1-1-1-1-1-1-1-1-----6-------| 
A:--6-x-x-6-6-6---4--4--4---4--4---2-2--2-2-2--1-1-1-1-1-1-1-1-1---4---------| 
E:--6-x-x-6-6-6---4--4--4---4--4---2-2--2-2-2--1-1-1-1-1-1-1-1-1-------------| 

                                                                      
  ots....to shock   And..... Amature......Dream   up... 
e:-------------------------------------------------------| 
B:---------4---------------------------------------------| 
G:-------4---4-------------------------------------------| 
D:6----4-------4----2-2-2-2--4-4--6-6--4-4-4-4--6-6--8-8-| 
A:---2--------------2-2-2-2--4-4--6-6--4-4-4-4--6-6--8-8-| 
E:------------------2-2-2-2--4-4--6-6--4-4-4-4--6-6--8-8-| 


e:|---------------------------------------------| 
B:|---------------------------------------------| 
G:|---------------------------------------------| 
D:|--9-9-9--8-8-8--6-6-6--4-4-4-----------------| 
A:|--9-9-9--8-8-8--6-6-6--4-4-4-----------------| 
E:|--9-9-9--8-8-8--6-6-6--4-4-4-----------------| 

e:----------------------------------------| 
B:----------------------------------------| 
G:----------------------------------------| 
D:-9-9--8-8--6-6--4-4--2-2--1-1--2-2--4-4-| 
A:-9-9--8-8--6-6--4-4--2-2--1-1--2-2--4-4-| 
E:-9-9--8-8--6-6--4-4--2-2--1-1--2-2--4-4-| 

                                         Sometimes Truth is stranger then FIC 
e:---------------------------------------------------------------------------| 
B:---------------------------------------------------------------------------| 
G:---------------------------------------------------------------------------| 
D:---9-9-9-9-7-7-7-7-7-7-7-6-6-6-4-4-4---2-2-2-2--4-4-4--2-2-2-2-2-2-2---4-4-| 
A:---9-9-9-9-7-7-7-7-7-7-7-6-6-6-4-4-4---2-2-2-2--4-4-4--2-2-2-2-2-2-2---4-4-| 
E:---9-9-9-9-7-7-7-7-7-7-7-6-6-6-4-4-4---2-2-2-2--4-4-4--2-2-2-2-2-2-2---4-4-| 

  TION. 
e:----| 
B:----| 
G:----| 
D:4-4-| 
A:4-4-| 
E:4-4-| 
                                            let ring. 
e:----------------------------------------------| 
B:----------------------------------------------| 
G:------------------------------------------9---| 
D:-9-9--8-8--6-6--4-4--2-2--1-1--2-2--4-4---9---| 
A:-9-9--8-8--6-6--4-4--2-2--1-1--2-2--4-4---9---| 
E:-9-9--8-8--6-6--4-4--2-2--1-1--2-2--4-4---9---|
	  

Search Paypal
auto scroll beats size up size down change color hide chords drawings
tab show chords e-chords YouTube Clip e-chords hide all tabs e-chords go to top tab