Alton Towers

Theme Song

Alton Towers

tabs Beginner beginner

by  GUITARSOLO187

save to print version add songbook text version e-mail correct tuner
chordsukulelecavacokeyboardtabbassdrumsharmonicaflute Guitar Pro
close

there isn't a video lesson for this song

chords

Theme Song

	  		e:------------------------------------ 
B:------------------------------------ 
G:------------------------------------ 
D:------------------------------------ 
A:-----------2-2--1-1--0-0------------ 
E:--0-2-3-5---3----2----1------------- 


e:------------------------------------ 
B:------------------------------------ 
G:------------------------------------ 
D:----------------0---0--------------- 
A:-----------2-2---2-2---------------- 
E:--0-2-3-5---3-3---3----------------- 


e:------------------------------------ 
B:------------------------------------ 
G:------------------------------------ 
D:------1-2--4-4--5-5--4-4------------ 
A:--2-4-------6----7----6------------- 
E:------------------------------------ 


e:------------------------------------ 
B:------------------------------------ 
G:------------------------------------ 
D:------1-2--4-4--5-5--4-4------------ 
A:--2-4-------6----7----6------------- 
E:------------------------------------ 



		  

See also:

tabs Deep Purple - Smoke On The Water (Easy Intro) tabs Eagles - Take It Easy tabs Billy Idol - White Wedding tabs Status Quo - Whatever you want tabs Dire Straits - Sultans of Swing tabs Dire Straits - Brothers in Arms
e-chords

Other versions:

tabs James Bond - Theme Song tabs X-files - Theme Song tabs Alton Towers - Theme Song tabs The Walking Dead - Theme Song tabs Adventure Time - Theme Song tabs James Bond - Theme Song (ver. 2)
auto scroll beats size up size down change color hide chords drawings
tab show chords e-chords YouTube Clip e-chords hide all tabs e-chords go to top tab

share