Alter Bridge

home > Alter Bridge

AHAVO RABO TACO SALAD Tab

Alter Bridge

Difficulty: IntermediateIntermediate

by Nick+D

tuner correct add songbook print version text version save to e-mail
chordsukulelecavacokeyboardtabbassdrumsharmonicsflute Guitar Pro
chords

AHAVO RABO TACO SALAD

  		Q=145 
   4/4 
    Gtr I 
    PM------------------------------------------------------| ~~ 
    S S S S S S S S S S S S S S S S   S S S S S S S S S S S S E. S  4x 
||----------------------------------|-------------------------------|| 
||o---------------------------------|------------------------------o|| 
||----------------------------------|-------------------------------|| 
||----------------------------------|-------------------------------|| 
||o---------7-----------------------|-----5------------------------o|| 
||--0-0-8-0---0-8-0-7-0-8-0-7-0-5-0-|-7-0---0-7-0-5-0-4-0-5-0-4--0--|| 


  H.      Q    E E Q  H      H.      Q    E E Q  Q  S S 
|------------|-------------|------------|-----------0-x-| 
|------------|-------------|------------|---------------| 
|------------|-------------|------------|---------------| 
|-2-------2--|-3-----------|-2-------2--|-3-------------| 
|-2-------2--|-3-----------|-2-------2--|-3-------------| 
|-0-------0--|-1-----------|-0-------0--|-1-------------| 


                                                                             ~~ 
                                                                                 |------6-------| 
   S  S  S  S  S  S  S  S  S  S  S  S  S  S  S  S    S  S  S  S  S  S  S  S  Q   S  S  S  S  S  S 
|-------13-17-13----------13-17-13----------13-19-|-13----------13-17-13--------12-12-12-12-12-12-| 
|-13-17----------17-13-17----------17-13-17-------|----17-13-17----------15-17--------------------| 
|-------------------------------------------------|-----------------------------------------------| 
|-------------------------------------------------|-----------------------------------------------| 
|-------------------------------------------------|-----------------------------------------------| 
|-------------------------------------------------|-----------------------------------------------| 


                                             ~~~ 
   |--3--|        |--3--| 
   S  S  S  S  S  S  S  S  S  S  S  S  S  S  E.  S 
|-12h13p12----12-----------------------------------| 
|----------15----13-15-12h13p12----------12-13-----| 
|-------------------------------14-13-14--------13-| 
|--------------------------------------------------| 
|--------------------------------------------------| 
|--------------------------------------------------| 


   S  S  S  S  S  S  S  S  Q   E  E 
|---------------------------------0-| 
|-----------------------------------| 
|-14----13--------------------------| 
|----15----15-14-12-14-15-----------| 
|-----------------------------------| 
|-------------------------12--12/---| 


  \0.5/      \0.5/      \0.5/      \0.5/ 
                                                                   ~~ 
  |---3---|  |---3----| |---3---|  |---3----|    |-3--|   |--3--| 
  E     E E  E     E  E E     E E  E     E  E    E E  E   E  E  E  H 
|---------------------------------------------|-------------------------| 
|-6p====5h6-10p====9h10-6-----5-6-10-----9-10-|-12p9h10-(10)p9h10s17----| 
|---------------------------------------------|-------------------------| 
|---------------------------------------------|-------------------------| 
|---------------------------------------------|-------------------------| 
|---------------------------------------------|-------------------------| 


  |-----6-----| |------6------| |------6------| 
  S S  S S S  S S  S  S S  S  S S  S  S S  S  S  Q 
|---------------------------------------------------| 
|---------------------------------------------------| 
|---------------------------------------------------| 
|-----------------------9h10h12---------9h10h12s14--| 
|--------7h8h10-8h10h12---------8h10h12-------------| 
|-7h8h10--------------------------------------------| 


                                                           ~~~~~~~~~~~~~~~ 
  |----5----|                    |--3--|         |-3-| 
  S S S  S  S   S   S T T  T T E S  S  S   S   S S S S   a W          +W 
|-0-7-8-10-12/-13\-12-8-7------------------------------|------------|--------| 
|-------------------------10p8p6h8h10h12/-13\-12-8-7---|------------|--------| 
|----------------------------------------------------9-|-6-9--------|-(9)----| 
|------------------------------------------------------|------------|--------| 
|------------------------------------------------------|------------|--------| 
|------------------------------------------------------|------------|--------| 
| 
| Gtr II 
| W                                                        W           W 
|------------------------------------------------------|------------|--------| 
|------------------------------------------------------|------------|--------| 
|------------------------------------------------------|------------|--------| 
|------------------------------------------------------|---2--------|--3-----| 
|------------------------------------------------------|---2--------|--3-----| 
|------------------------------------------------------|---0--------|--1-----| 


                                                       \0.5/ 
  ~           PM------|            ~~~~~~~~                  ~~~~~~~~ 
                    |3-|  |--3--| 
  E Q.   +Q   Q     Q  E  E  E  E  Q   +E   E   H.     E     E   +W 
|----------------|----------------------------|----------------|--------| 
|----------------|----------------------------|----------------|--------| 
|-9-9----(9)-----|----------------14--(14)----|-1s=====4-----2-|-(2)----| 
|----------------|-------15----12----------/2-|----------------|--------| 
|----------------|----------15----------------|----------------|--------| 
|-------------0--|-13-13----------------------|----------------|--------| 
| 
| W                 W                           W                 W 
|----------------|----------------------------|----------------|--------| 
|----------------|----------------------------|----------------|--------| 
|----------------|----------------------------|----------------|--------| 
|-2--------------|--3-------------------------|-2--------------|--3-----| 
|-2--------------|--3-------------------------|-2--------------|--3-----| 
|-0--------------|--1-------------------------|-0--------------|--1-----| 


                                                                           /1\ 
   |---------6---------|   |---------6---------|   |---------6---------| 
   S   S   S   S   S   S   S   S   S   S   S   S   S   S   S   S   S   S   Q 
|-------------------------------------------------------------------------------| 
|-------------------------------------------------------------------------------| 
|-<4>-<2>-<1>-<4>-<2>-<1>-<4>-<2>-<1>-<4>-<2>-<1>-<4>-<2>-<1>-<4>-<2>-<1>-<2>---| 
|-------------------------------------------------------------------------------| 
|-------------------------------------------------------------------------------| 
|-------------------------------------------------------------------------------| 
| 
|  W 
|-------------------------------------------------------------------------------| 
|-------------------------------------------------------------------------------| 
|-------------------------------------------------------------------------------| 
|--2----------------------------------------------------------------------------| 
|--2----------------------------------------------------------------------------| 
|--0----------------------------------------------------------------------------| 


                   |--3--| 
  +E  +Q.   +Q.    S  S  S 
|-----------------------15--| 
|--------------------17-----| 
|-(2)-(2)---(2)---17--------| 
|---------------------------| 
|---------------------------| 
|---------------------------| 
| 
|  W 
|---------------------------| 
|---------------------------| 
|---------------------------| 
|--3------------------------| 
|--3------------------------| 
|--1------------------------| 


         |--3--|                                |--3--| 
   S  S  S  S  S  S  S  S  S  S  S  S  S  S  S  S  S  S 
|-19p16-------16-20p16-20p16-20p16-19p16-19p16-------16-| 
|----------17-------------------------------------17----| 
|-------17-------------------------------------17-------| 
|-------------------------------------------------------| 
|-------------------------------------------------------| 
|-------------------------------------------------------| 


                                 ~~~ 
         |--3--|        |--3--|       |------6-------| 
   S  S  S  S  S  S  S  S  S  S  Q    S  S  S  S  S  S 
|-22p16-------16-20p16-------16-19\--15-15-15-15-15-15-| 
|----------17-------------17---------------------------| 
|-------17-------------17------------------------------| 
|------------------------------------------------------| 
|------------------------------------------------------| 
|------------------------------------------------------| 


   |------6-------|  |------6-------|  |------6-------|  |------6-------| 
   S  S  S  S  S  S  S  S  S  S  S  S  S  S  S  S  S  S  S  S  S  S  S  S 
|-19-17-15-19-17-15-------------------------------------------------------| 
|-------------------19-17-15-19-17-15-17-15-13-17-15-13-16-14-15-16-14-12-| 
|-------------------------------------------------------------------------| 
|-------------------------------------------------------------------------| 
|-------------------------------------------------------------------------| 
|-------------------------------------------------------------------------| 


   |------6-------|  |-----6------| 
   S  S  S  S  S  S  S  S S  S  S S  H 
|--------------------------------------------| 
|--------------------------------------------| 
|-14-12-11-----------------------------------| 
|----------14-12-10-12-10-9------------------| 
|---------------------------12-10-9-10b12r===| 
|--------------------------------------------| 


  |------6------|  |-----6------| |------6------| |------6------| 
  S  S  S S  S  S  S S  S S  S  S S  S  S  S S  S S  S  S S  S  S 
|-----------------------------------------------------------------| 
|-----------------------------------------------------------------| 
|---------------------------------------------------------9h10h12-| 
|---------------------------------9h10h12p10p9----9h10h12---------| 
|---------8h10h12p10p8----8h10h12--------------12-----------------| 
|-8h10h12--------------12-----------------------------------------| 


   |-----6------| |------6------|      |3-| |----6----| 
   S S  S S  S  S S  S  S  S S  S  E  +E  S S S S S S S 
|-----------------------------------------0-0-0-0-0-0-0-| 
|-------------------------------------------------------| 
|-10p9------------9h10h12p10p9h10-{9}-(9)---------------| 
|------12p9h10h12---------------------------------------| 
|-------------------------------------------------------| 
|-------------------------------------------------------| 


   |-----------12-------------|  |-----------12-------------| 
   S  S S S  S  S S S  S  S S S  S  S S S  S  S S S  S  S S S 
|-12-12-0-0-17-17-0-0-13-13-0-0-15-15-0-0-19-19-0-0-15-15-0-0-| 
|-------------------------------------------------------------| 
|-------------------------------------------------------------| 
|-------------------------------------------------------------| 
|-------------------------------------------------------------| 
|-------------------------------------------------------------| 


   |-----------12-------------|  |-----------12-------------| 
   S  S S S  S  S S S  S  S S S  S  S S S  S  S S S  S  S S S 
|-17-17-0-0-20-20-0-0-17-17-0-0-19-19-0-0-20-20-0-0-19-19-0-0-| 
|-------------------------------------------------------------| 
|-------------------------------------------------------------| 
|-------------------------------------------------------------| 
|-------------------------------------------------------------| 
|-------------------------------------------------------------| 
| 
|  W 
|-------------------------------------------------------------| 
|-------------------------------------------------------------| 
|-------------------------------------------------------------| 
|-------------------------------------------------------------| 
|-------------------------------------------------------------| 
|-------------------------------------------------------------| 


            ~~ 
   a  E  E  H     +E   a  E 
|-22-24-22-24----(24)-24-22-| 
|---------------------------| 
|---------------------------| 
|---------------------------| 
|---------------------------| 
|---------------------------| 
| 
|     W 
|---------------------------| 
|---------------------------| 
|---------------------------| 
|-----2---------------------| 
|-----2---------------------| 
|-----0---------------------| 


   |--3--| 
   Q  Q  Q  Q   E  S  S    H.       E  E 
|-25-24-24-24--22-22p19-|-22\------------| 
|-----------------------|----------15S22-| 
|-----------------------|----------------| 
|-----------------------|----------------| 
|-----------------------|----------------| 
|-----------------------|----------------| 
| 
|  W                       W 
|-----------------------|----------------| 
|-----------------------|----------------| 
|-----------------------|----------------| 
|--3--------------------|--7-------------| 
|--3--------------------|--7-------------| 
|--1--------------------|--5-------------| 


   |--3--|  |--3--|  |------6-------|  |--3--| 
   E  E  E  E  E  E  S  S  S  S  S  S  S  S  S  S  S 
|-20-17-19----17----20-19-17-------------------19----| 
|----------20----18----------20-18-17-20-18-17----17-| 
|----------------------------------------------------| 
|----------------------------------------------------| 
|----------------------------------------------------| 
|----------------------------------------------------| 
| 
|  H                 H 
|----------------------------------------------------| 
|----------------------------------------------------| 
|----------------------------------------------------| 
|--5-----------------3-------------------------------| 
|--5-----------------3-------------------------------| 
|--3-----------------1-------------------------------| 


   +H       E   E E E 
|---------------0-0-0-| 
|-(17)----(17)\-------| 
|---------------------| 
|---------------------| 
|---------------------| 
|---------------------| 
| 
|   W 
|---------------------| 
|---------------------| 
|---------------------| 
|---2-----------------| 
|---2-----------------| 
|---0-----------------| 


  |--3--|      |-3-|  |------6-------|     |--3--| 
  S  S  S  E  +E   S  T  T  T  T  T  T  E  S  S  S  T  T  T  T  E 
|-0h12h14-19-(19)p14p12-------------------------------------------| 
|-----------------------15p13p12h13h15h19-13p12-------------------| 
|-----------------------------------------------14-12-11-12-14-16-| 
|-----------------------------------------------------------------| 
|-----------------------------------------------------------------| 
|-----------------------------------------------------------------| 
| 
| W 
|-----------------------------------------------------------------| 
|-----------------------------------------------------------------| 
|-----------------------------------------------------------------| 
|-3---------------------------------------------------------------| 
|-3---------------------------------------------------------------| 
|-1---------------------------------------------------------------| 


                              ~~~~~~~ 
   |------6-------| 
   S  S  S  S  S  S  a  E  a  E  +Q    E  E 
|-------------------------------------------| 
|-------------------------------------------| 
|-14p12p11----------12-14-12-14-(14)--11----| 
|----------14p12p10----------------------14-| 
|-------------------------------------------| 
|-------------------------------------------| 
| 
|  W 
|-------------------------------------------| 
|-------------------------------------------| 
|-------------------------------------------| 
|--2----------------------------------------| 
|--2----------------------------------------| 
|--0----------------------------------------| 


   |--3--|  |---3----|  |--3--|  |--3--| 
   E  E  E  S  S  E  E  E  E  E  E  E  E    H.     Q    W 
|----------------------------------------|------------|------| 
|----------------------------------------|------------|------| 
|-11-------------------------------------|------------|------| 
|----12-14-10-12-10----10----------------|------------|------| 
|-------------------14----12-14-10-12-14-|------------|------| 
|----------------------------------------|-12p=====0--|-0----| 
| 
|  W                                        W           W 
|----------------------------------------|------------|------| 
|----------------------------------------|------------|------| 
|----------------------------------------|------------|------| 
|--5-------------------------------------|--2---------|-3----| 
|--5-------------------------------------|--2---------|-3----| 
|--3-------------------------------------|--0---------|-1----| 


                           |3| |-3-| 
   W            +Q.     E  Q E E E E   Q  H.         +W           +W 
|------------|-----------------------|-------------|------------|--------| 
|------------|-----------------------|-------------|------------|--------| 
|-<9>--------|-(<9>)---<9>-----------|-------------|------------|--------| 
|------------|-----------------------|-------------|------------|--------| 
|------------|-----------------------|-------------|------------|--------| 
|------------|-------------0-5-8-7-5-|-7--7b8r=====|=(7)--------|-(7)----| 
| 
|  W             H         H           W              W            W 
|------------|-----------------------|-------------|------------|--------| 
|------------|-----------------------|-------------|------------|--------| 
|------------|-----------------------|-------------|------------|--------| 
|--7---------|---5---------3---------|-2-----------|--3---------|--7-----| 
|--7---------|---5---------3---------|-2-----------|--3---------|--7-----| 
|--5---------|---3---------1---------|-0-----------|--1---------|--5-----| 


   Q   Q.   E  E  S 
|-------------------| 
|-------------------| 
|-------------------| 
|-----------x-10\-2-| 
|-----------x-10\-2-| 
|-(7)h=9----x--8\-0-| 
| 
|  W 
|-------------------| 
|-------------------| 
|-------------------| 
|-------------------| 
|-------------------| 
|-------------------| 


    Gtr III 
       |-3-|    |-3-|      |-3-| |-3-|      |-3-|    |-3-|      |-3-| |-3-| 
    q  E E E q  E E E   q  E E E q q q   q  E E E q  E E E   q  E E E q q q 
||--------------------|----------------|-------------------|------------------|| 
||o-0--0-0-0-0--0-0-0-|-0--0-0-0-0-0-0-|-1--1-1-1-1--1-1-1-|-1--1-1-1-3-1-1--o|| 
||--1--1-1-1-1--1-1-1-|-1--1-1-1-1-1-1-|-2--2-2-2-2--2-2-2-|-2--2-2-2-4-2-2---|| 
||--2--2-2-2-2--2-2-2-|-2--2-2-2-2-2-2-|-3--3-3-3-3--3-3-3-|-3--3-3-3-5-3-3---|| 
||o-2--2-2-2-2--2-2-2-|-2--2-2-2-2-2-2-|-3--3-3-3-3--3-3-3-|-3--3-3-3-5-3-3--o|| 
||--------------------|----------------|-------------------|------------------|| 


  Gtr I 
   H.            +E     E      S  S  E  +H            E    E 
|-19------------(19)---17---|-19-20-17-(17)\---------13---13-| 
|---------------------------|--------------------------------| 
|---------------------------|--------------------------------| 
|---------------------------|--------------------------------| 
|---------------------------|--------------------------------| 
|---------------------------|--------------------------------| 
| 
| Gtr III 
|      |-3-|      |---3---|              |--3--| |--3---| 
|  q   E E E q    E  E    E    q         E   E E q q    q 
|---------------------------|--------------------------------| 
|--0---0-0-0-0----0--0----0-|--0---------0---0-0-0-0----0----| 
|--1---1-1-1-1----1--1----1-|--1---------1---1-1-1-1----1----| 
|--2---2-2-2-2----2--2----2-|--2---------2---2-2-2-2----2----| 
|--2---2-2-2-2----2--2----2-|--2---------2---2-2-2-2----2----| 
|---------------------------|--------------------------------| 


   |---3----|  |--3--|  |---3----|  |---3----|    |-3-|  |-3-|   |-3--| 
   S  S  E  E  E  E  E  S  S  E  E  E  S  S  E    E E E  E E E   E E  E  Q     E 
|-13h16p13----13--------------------------------|-----------------------------------| 
|----------17----15-17-13h15p13----13-----------|-----------------------------------| 
|-------------------------------16----14h16p14\-|-5p4h5\-2p1h2\-10p9h10s14/---17\---| 
|-----------------------------------------------|-----------------------------------| 
|-----------------------------------------------|-----------------------------------| 
|-----------------------------------------------|-----------------------------------| 
| 
|              |--3--|              |---3----|           |-3-|   |----3-----| 
|  q           E  E  E  q           E  E     E    q      E E E   q    q     q 
|-----------------------------------------------|-----------------------------------| 
|--1-----------1--1--1--1-----------1--1-----1--|-1------1-1-1---3----1-----1-------| 
|--2-----------2--2--2--2-----------2--2-----2--|-2------2-2-2---4----2-----2-------| 
|--3-----------3--3--3--3-----------3--3-----3--|-3------3-3-3---5----3-----3-------| 
|--3-----------3--3--3--3-----------3--3-----3--|-3------3-3-3---5----3-----3-------| 
|-----------------------------------------------|-----------------------------------| 


             |3| 
    H        Q E S  S   S   S    H         E  Q       E 
|------------0----------------|--------------------------| 
|-----------------------------|--------------15----------| 
|-\13----------7-9-10---9---7-|-<9>----------16-----(14)p| 
|-----------------------------|--------------------------| 
|-----------------------------|--------------------------| 
|-----------------------------|--------------------------| 
| 
|      |-3-|     |---3----|          |-3-| |--3---| 
|   q  E E E q   E    E   E      q   E E E q    q q 
|-----------------------------|--------------------------| 
|---0--0-0-0-0---0----0---0---|--0---0-0-0-0----0-0------| 
|---1--1-1-1-1---1----1---1---|--1---1-1-1-1----1-1------| 
|---2--2-2-2-2---2----2---2---|--2---2-2-2-2----2-2------| 
|---2--2-2-2-2---2----2---2---|--2---2-2-2-2----2-2------| 
|-----------------------------|--------------------------| 


      ~~~~~~~~~~~~ 
                       |---3----|  |--3--|    |--3--|             |-3-| 
   S  S  +E   +Q       S  S  E  E  E  E  E    E  E  E  H          E E E 
|------------------------------------------|----------------------0-0-0-| 
|------------------------------------------|----------------------------| 
|-12h14-(14)-(14)-----13h14p13----13-------|----------------------------| 
|------------------------------15----14-15-|-12-14----14\---------------| 
|------------------------------------------|-------12-------------------| 
|------------------------------------------|----------------------------| 
| 
|              |-3--|              |--3--|             |-3--| |--3--| 
|  q           E  E E  q           E  E  E    q        E  E E q q   q 
|------------------------------------------|----------------------------| 
|--1-----------1--1-1--1-----------1--1--1-|--1--------1--1-1-3-1---1---| 
|--2-----------2--2-2--2-----------2--2--2-|--2--------2--2-2-4-2---2---| 
|--3-----------3--3-3--3-----------3--3--3-|--3--------3--3-3-5-3---3---| 
|--3-----------3--3-3--3-----------3--3--3-|--3--------3--3-3-5-3---3---| 
|------------------------------------------|----------------------------| 


   |------6-------|  |------6-------|  |------6-------|  |------6-------| 
   S  S  S  S  S  S  S  S  S  S  S  S  S  S  S  S  S  S  S  S  S  S  S  S 
|-16p12h13h16p13p12h17p12h13h16p13p12-------------------------------------| 
|-------------------------------------16p12h13h15p13p12h17p12h13h15p13p12S| 
|-------------------------------------------------------------------------| 
|-------------------------------------------------------------------------| 
|-------------------------------------------------------------------------| 
|-------------------------------------------------------------------------| 
| 
|                    |-----3-----|                       |-----3-----| 
|  q                 E     E     E     q                 E     E     E 
|-------------------------------------------------------------------------| 
|--0-----------------0-----0-----0-----0-----------------0-----0-----0----| 
|--1-----------------1-----1-----1-----1-----------------1-----1-----1----| 
|--2-----------------2-----2-----2-----2-----------------2-----2-----2----| 
|--2-----------------2-----2-----2-----2-----------------2-----2-----2----| 
|-------------------------------------------------------------------------| 


                                                  |-----6------| |-----5------| 
  T  T  T  T T  T  T T  T  T T    T  T T    T  T  S S  S S  S  S S  S    S  S S 
|----------------------------------------------------------------------------------| 
|-9h10h13p10p9---------------------------------------------------------------------| 
|--------------13p10p9-----------------9h==10h13p10p9------------9h10h==13p10p9----| 
|----------------------12p10p9h==10h12----------------12p9h10h12-------------------| 
|----------------------------------------------------------------------------------| 
|----------------------------------------------------------------------------------| 
| 
|                       |-------3--------|        |---------3---------| 
| q                     E      E         E        q         q         q 
|----------------------------------------------------------------------------------| 
|-0---------------------0------0---------0--------0---------0---------0------------| 
|-1---------------------1------1---------1--------1---------1---------1------------| 
|-2---------------------2------2---------2--------2---------2---------2------------| 
|-2---------------------2------2---------2--------2---------2---------2------------| 
|----------------------------------------------------------------------------------| 


    ~~~                 PM--------------------| 
                        |-3-| |-3-| |-3-| |-3-| 
    W                   E E E E E E E E E E E E   H.           +Q 
|---------------------|-------------------------|-----------------------| 
|---------------------|-------------------------|-----------------------| 
|-\10-----------------|-------------------------|-----------------------| 
|---------------------|-------------------3-2---|-----------------------| 
|---------------------|-0-1-0-2-0-0-3-2-0-----3-|-----------------------| 
|---------------------|-------------------------|-0------------(0)------| 
| 
|      |-3-|    |-3-|         |-3-| |---3---|         |-3-|     |-3--| 
|   q  E E E q  E E E   q     E E E q   q   q     q   E E E q   E  E E 
|---------------------|-------------------------|-----------------------| 
|---1--1-1-1-1--1-1-1-|-1-----1-1-1-3---1---1---|-0---0-0-0-0---0--0-0--| 
|---2--2-2-2-2--2-2-2-|-2-----2-2-2-4---2---2---|-1---1-1-1-1---1--1-1--| 
|---3--3-3-3-3--3-3-3-|-3-----3-3-3-5---3---3---|-2---2-2-2-2---2--2-2--| 
|---3--3-3-3-3--3-3-3-|-3-----3-3-3-5---3---3---|-2---2-2-2-2---2--2-2--| 
|---------------------|-------------------------|-----------------------| 


    H          +E    Q       E 
|-(19)--------(19)-(17)-----17-| 
|------------------------------| 
|------------------------------| 
|------------------------------| 
|------------------------------| 
|------------------------------| 
| 
|       |-3-|   |----3----| 
|   q   E E E   q       q q 
|------------------------------| 
|---0---0-0-0---0-------0-0----| 
|---1---1-1-1---1-------1-1----| 
|---2---2-2-2---2-------2-2----| 
|---2---2-2-2---2-------2-2----| 
|------------------------------| 


            ~~~~~~~~~~~~~~~~ 
   |---3----|            |-3-|          |--3--|       |-3--| 
   E  E  a  E  +Q       +Q   E  S  S    S  S  S    Q  Q    E  +H 
|-19-20-20-22-(22)-----(22)-22-19h20h==22p20p19-|-20--------------------| 
|-----------------------------------------------|-----------------------| 
|-----------------------------------------------|---------<9>-(9)-------| 
|-----------------------------------------------|-----------------------| 
|-----------------------------------------------|-----------------------| 
|-----------------------------------------------|-----------------------| 
| 
|               |-3--|          |----3-----|          |-3--|   |-3--| 
|  q            E  E E   q      E    E     E       q  E E  E   q  q q 
|-----------------------------------------------|-----------------------| 
|--1------------1--1-1---1------1----1-----1----|--1--1-1--1---3--1-1---| 
|--2------------2--2-2---2------2----2-----2----|--2--2-2--2---4--2-2---| 
|--3------------3--3-3---3------3----3-----3----|--3--3-3--3---5--3-3---| 
|--3------------3--3-3---3------3----3-----3----|--3--3-3--3---5--3-3---| 
|-----------------------------------------------|-----------------------| 


   |--3--|  |---3----|  |--3--|  |--3--| 
   E  E  E  E  E  S  S  E  E  E  E  E  E 
|----------------------------------------| 
|----------------------------------------| 
|-------------13-16p13h16-13----17-16-14-| 
|----------14----------------14----------| 
|-------14-------------------------------| 
|-12-16----------------------------------| 
| 
| Gtr II 
|  W 
|----------------------------------------| 
|----------------------------------------| 
|----------------------------------------| 
|--2-------------------------------------| 
|--2-------------------------------------| 
|--0-------------------------------------| 


                                  ~~ 
   |--3--|  |---3----|  |--3--|           |3| 
   E  E  E  E  E  S  S  Q  Q  Q   H.      E Q 
|-------------------------------|-------------| 
|-------------------------------|-------------| 
|-------------14-17p14-19-17-16-|-4-------4-4-| 
|----------15-------------------|-------------| 
|-------15----------------------|-------------| 
|-13-17-------------------------|-------------| 
| 
|  W                              W 
|-------------------------------|-------------| 
|-------------------------------|-------------| 
|-------------------------------|-------------| 
|--3----------------------------|-7-----------| 
|--3----------------------------|-7-----------| 
|--1----------------------------|-5-----------| 


  |--3--| |-3-| |--3--| |-3-|   |3|  |--3---| |--3--|  |---3----| 
  S S E E E E E S S E E E E E   E Q  S S E  E E  E  E  S  S  E  E 
|-----------------------------|------7h8p7------------12h13p12----| 
|-----------------------------|------------10------12----------15-| 
|-4h5p4---4-5-7-4h5p4---4-----|-4-5\----------9-10----------------| 
|-------7-------------7---5-7-|-----------------------------------| 
|-----------------------------|-----------------------------------| 
|-----------------------------|-----------------------------------| 
| 
| H             H               W 
|-----------------------------|-----------------------------------| 
|-----------------------------|-----------------------------------| 
|-----------------------------|-----------------------------------| 
|-5-------------3-------------|-2---------------------------------| 
|-5-------------3-------------|-2---------------------------------| 
|-3-------------1-------------|-0---------------------------------| 


                         ~~~~ 
   |--3--|  |---3----|        |------6-------| 
   E  E  E  S  S  E  E   Q    S  S  S  S  S  S 
|----------------------------12-12-12-12-12-12-| 
|----------12h13p12----<12>--------------------| 
|-13-14-16----------14-------------------------| 
|----------------------------------------------| 
|----------------------------------------------| 
|----------------------------------------------| 
| 
|  W 
|----------------------------------------------| 
|----------------------------------------------| 
|----------------------------------------------| 
|--3-------------------------------------------| 
|--3-------------------------------------------| 
|--1-------------------------------------------| 


   |------6-------|  |------6-------|  |------6-------|  |------6-------| 
   S  S  S  S  S  S  S  S  S  S  S  S  S  S  S  S  S  S  S  S  S  S  S  S 
|-16-12-13-16-13-12-17-12-12-16-12-12-17-12-12-16-17-12-19-12-12-16-17-12-| 
|-------------------------------------------------------------------------| 
|-------------------------------------------------------------------------| 
|-------------------------------------------------------------------------| 
|-------------------------------------------------------------------------| 
|-------------------------------------------------------------------------| 
| 
|  W 
|-------------------------------------------------------------------------| 
|-------------------------------------------------------------------------| 
|-------------------------------------------------------------------------| 
|--7----------------------------------------------------------------------| 
|--7----------------------------------------------------------------------| 
|--5----------------------------------------------------------------------| 


   |------6-------|  |------6-------|  |------6-------|  |------6-------| 
   S  S  S  S  S  S  S  S  S  S  S  S  S  S  S  S  S  S  S  S  S  S  S  S 
|-19-16-17-19-17-16-20-16-17-19-17-16-20-17-19-20-19-17-22-17-19-20-19-17--| 
|--------------------------------------------------------------------------| 
|--------------------------------------------------------------------------| 
|--------------------------------------------------------------------------| 
|--------------------------------------------------------------------------| 
|--------------------------------------------------------------------------| 
| 
|  H                                   H 
|--------------------------------------------------------------------------| 
|--------------------------------------------------------------------------| 
|--------------------------------------------------------------------------| 
|--5-----------------------------------3-----------------------------------| 
|--5-----------------------------------3-----------------------------------| 
|--3-----------------------------------1-----------------------------------| 


  Gtr I 
   a  Q    Q         H                               W 
|-22-24\-----------------------------|-------------------------------| 
|------------------------------------|-------------------------------| 
|------------------------------------|-------------------------------| 
|------------------------------------|-------------------------------| 
|------------------------------------|-------------------------------| 
|------------------------------------|-------------------------------| 
| 
| Gtr II 
|  PM--------------------------------------------------------| ~~ 
|  S  S  S S S S S S S S S S S S S S   S S S S S S S S S S S S E. S 
|------------------------------------|-------------------------------| 
|------------------------------------|-------------------------------| 
|------------------------------------|-------------------------------| 
|------------------------------------|-------------------------------| 
|------------7-----------------------|-----5-------------------------| 
|--0--0--8-0---0-8-0-7-0-8-0-7-0-5-0-|-7-0---0-7-0-5-0-4-0-5-0-4--0--| 


    PM------------------------------------------------------| ~~ 
    S S S S S S S S S S S S S S S S   S S S S S S S S S S S S E. S     3x 
||----------------------------------|----------------------------------|| 
||o---------------------------------|---------------------------------o|| 
||----------------------------------|----------------------------------|| 
||----------------------------------|----------------------------------|| 
||o---------7-----------------------|-----5---------------------------o|| 
||--0-0-8-0---0-8-0-7-0-8-0-7-0-5-0-|-7-0---0-7-0-5-0-4-0-5-0-4--0-----|| 


    |----6----|  |----6----| |----6----| |----6----| 
    S S S S S S  S S S S S S S S S S S S S S S S S S 
||--7-0-0-8-0-0-12-0-0-8-0-0-7-0-0-8-0-0-7-0-0-5-0-0-| 
||o--------------------------------------------------| 
||---------------------------------------------------| 
||---------------------------------------------------| 
||o--------------------------------------------------| 
||---------------------------------------------------| 


  |----6-----| |----6----| |----6----| 
  S S S  S S S S S S S S S S S S S S S Q 
|-7-0-0-10-0-0-7-0-0-5-0-0-4-0-0-5-0-0-4----|| 
|------------------------------------------o|| 
|-------------------------------------------|| 
|-------------------------------------------|| 
|------------------------------------------o|| 
|-------------------------------------------|| 


  Q  Q  H      +W           +W 
|-0--2-------|------------|-----*| 
|------------|------------|-----*| 
|------------|------------|-----*| 
|------------|------------|-----*| 
|------------|------------|-----*| 
|-------0----|-(0)--------|-(0)-*| 




-------------------------------------------------------------------------------- 


Duration Legend 
--------------- 
W - whole; H - half; Q - quarter; E - 8th; S - 16th; T - 32nd; X - 64th; a - acciaccatura 
+ - note tied to previous; . - note dotted; .. - note double dotted 
Uncapitalized letters represent notes that are staccato (1/2 duration) 
Irregular groupings are notated above the duration line 
Duration letters will always appear directly above the note/fret number it represents the 
duration for.  Duration letters with no fret number below them represent rests.  Multi- 
bar rests are notated in the form Wxn, where n is the number of bars to rest for.  Low 
melody durations appear below the staff 

Tablature Legend 
---------------- 
 h   - hammer-on 
 p   - pull-off 
 b   - bend 
 pb  - pre-bend 
 r   - bend release (if no number after the r, then release immediately) 
 /\  - slide into or out of (from/to "nowhere") 
 s   - legato slide 
 S   - shift slide 
 - natural harmonic 
{n}  - artificial harmonic 
n(n) - tapped harmonic 
 ~   - vibrato 
 tr  - trill 
 T   - tap 
 TP  - trem. picking 
 PM  - palm muting 
\n/  - tremolo bar dip; n = amount to dip 
 \n  - tremolo bar down 
 n/  - tremolo bar up 
/n\  - tremolo bar inverted dip 
 =   - hold bend; also acts as connecting device for hammers/pulls 
 <> - volume swell (louder/softer) 
 x   - on rhythm slash represents muted slash 
 o   - on rhythm slash represents single note slash 

Misc Legend 
----------- 
 |  - bar 
||  - double bar 
||o - repeat start 
o|| - repeat end 
*|  - double bar (ending) 
 :  - bar (freetime) 
 $  - Segno 
 &  - Coda 

	  

Full key step upFull key step up
Half key step upHalf key step up
Half key step downHalf key step down
Full key step downFull key step down
Search Paypal
auto scroll beats size up size down change color hide chords drawings
tab show chords e-chords YouTube Clip e-chords hide all tabs e-chords go to top tab