Aerosmith

home > Aerosmith

Girls of Summer Tab

Aerosmith

Difficulty: EasyEasy

by meta11eir0

tuner correct add songbook print version text version save to e-mail
chordsukulelecavacokeyboardtabbassdrumsharmonicsflute Guitar Pro
chords

Girls of Summer

Year: 2002 - Album: O, Yeah! Ultimate Aerosmith Hits

  		Aerosmith 
Girls of Summer 
 
Fill Intro (com a bateria) 
e---2---3---0---0--222... 
B-----3---3-------------- 
G------------------------ 
D------------------------ 
A------------------------ 
E------------------------ 
 
INTRO: X2 
      D      D                                      G/D     D 
e-----2------0---------------------------------------3------2--------- 
B-------3------3---------------------------------------3------3------- 
G---------2------2---------------------------------------2------2----- 
D--------------------------------------------------------------------- 
A--------------------------------------------------------------------- 
E--------------------------------------------------------------------- 
 
 
VERSO: 
 
When winter hush turned summer pink....G G G G Am Cm G G 
 
When all you think of all day long.... 
    G    G    G    G   Am   Cm   G   G 
e--------------------------------------------------------------------- 
B--------------------------------------------------------------------- 
G------------------------------0-------0------------------------------ 
D-----0----0----0----0----2--------0---0------------------------------ 
A-----------------------0----3---------------------------------------- 
E---3----3----3----3-------------3---3-------------------------------- 
About the girls of summer... 
e--------------------------------------------------------------------- 
B--------------------------------------------------------------------- 
G--------------------------------------------------------------------- 
D-------------------4--5----0..--------------------------------------- 
A--------------------------------------------------------------------- 
E--------------------------------------------------------------------- 
 
 
PRE-REFRAO: 
 
D or G  (huuu...huuu...haaa...haaa.....) 
 
Refrao: 
 
D Bm G Em 
D Bm G Em 
G Bb D 
 
VERSO 2: 
 
G G G G Am Cm G G 
 
    G              G                   G              G 
e---3---2----------0-------------------3---2----------0---------------- 
B----3---3----------3---3.....----------3---3----------3---3.....------ 
G-----0---0...-------0-------------------0---0...-------0-------------- 
D---------------------------------------------------------------------- 
A---------------------------------------------------------------------- 
E---------------------------------------------------------------------- 
  Am                Cm                  G             G 
e-------0-------------------3-----------7---7-8---7---5---7---5-----3.. 
B-1---1-----1-------4---4-------4---------8-----8---8---8---8---8---3.. 
G---2---------2..-----5-----------5..-------------------------------0.. 
D---------------------------------------------------------------------- 
A---------------------------------------------------------------------- 
E---------------------------------------------------------------------- 
 
PRE-REFRAO: 
 
D or G  (huuu...huuu...haaa...haaa.....) 
 
REFRAO: 
 
D Bm G Em 
D Bm G Em 
G Bb D 
 
 
PONTE: 
   Bb       C        G       D       Bb       C        G 
e--------------------------------------------------------------------- 
B--------------------------------------------------------------------- 
G--------------------------------------------------------------------- 
D--0/8-----8/10-----0/5-----5/12-----0/8-----8/10-----0/5------------- 
A--------------------------------------------------------------------- 
E--------------------------------------------------------------------- 
      
e----5---5--7..-------5---7---5..------------------------------------- 
B------5------------5----5--5----------------------------------------- 
G--------------------------------------------------------------------- 
D--------------------------------------------------------------------- 
A--------------------------------------------------------------------- 
E--------------------------------------------------------------------- 
     
e------3--5..-------5---3...------------------------------------------ 
B----3--3----------3---3---------------------------------------------- 
G--------------------------------------------------------------------- 
D--------------------------------------------------------------------- 
A--------------------------------------------------------------------- 
E--------------------------------------------------------------------- 
 
VERSO: 
 
G G G G Am Cm G G 
 
REFRAO: 
 
D Bm G Em 
D Bm G Em 
G Em G Bb D 
 
 
OUTRO: 
 
      D      D                                      G/D     D 
e-----2------0---------------------------------------3------2--------- 
B-------3------3---------------------------------------3------3------- 
G---------2------2---------------------------------------2------2----- 
D--------------------------------------------------------------------- 
A--------------------------------------------------------------------- 
E--------------------------------------------------------------------- 
 
         Bb                         C 
e--------------------------------------------------------------------- 
B--------------------------------------------------------------------- 
G--2\----7--------5/-7---5---3/-----9--------------------------------- 
D--------------------------------------------------------------------- 
A--------------------------------------------------------------------- 
E--------------------------------------------------------------------- 
 
 
GIRLS OF SUMMER 
{letra} 
 
When winter hush turned summer pink 
In half the time it takes to blink 
But it all depends on what you think 
About the girls of summer 
 
When all you think of all day long 
Is a pretty face inside a song 
With a thought like that you can't go wrong 
About the girls of summer 
 
Uhhhh Ahhhhhh! 
 
Some girls are all about it 
Some girls they love to let it fly 
Some girls can't live without it 
Some girls are born to make you cry 
Over and over again 
 
My favorite thing that drives me wild 
Is when a city girl walks a county mile 
For the boys she loves, God bless the child 
Inside the girls of summer 
 
Uhhhh Ahhhhhh! 
 
Some girls are all about it 
Some girls they love to let it fly 
Some girls can't live without it 
Some girls are born to make you cry 
Yeah over and over again 
 
They get you climbin the walls 
They get you caught in their spell 
They get you speakin in tongues 
What gets me heaven or hell 
To fall in love twice a day 
Is such a sweet price to pay... 
Se vou plee.....????? (in french???) 
 
The best things about life are free 
The pussy willow up your tree 
To the one who climbs the long way's deep 
Oh girl! 
 
Some girls are all about it 
Some girls they love to let it fly 
Some girls no doubt about it 
Some girls are born to make you cry 
Some girls can't live without it 
Some girls got 20 reasons why 
Over and over and over and over... 
	  

Full key step upFull key step up
Half key step upHalf key step up
Half key step downHalf key step down
Full key step downFull key step down
Search Paypal
auto scroll beats size up size down change color hide chords drawings
tab show chords e-chords YouTube Clip e-chords hide all tabs e-chords go to top tab