3 days grace

Just like u

3 days grace

tabs Beginner beginner

by  REDFENDERGIRL

save to print version add songbook text version e-mail correct tuner
chordsukulelecavacokeyboardtabbassdrumsharmonicaflute Guitar Pro
close

there isn't a video lesson for this song

chords

Just like u

	  		NO it's not me, the first guitar is all played in the low E 
so don't get mad at me if you think this is stupid! 
 
INTRO 
D------------------------------------------------------ 
A------------------------------------------------------ 
E-6--4--1--9--6-6----6--4--1--9-6---6--4--1--9-6-6--2-4 
 
~I could be mean, I could be angery~ 
Verse 1 
D------------------------------------------------------ 
A------------------------------------------------------ 
E-6--4--1--9--6-6----6--4--1--9-6---6--4--1--9-6-6--2-4 
 
 
pre chourus 
D------------------------------------------------------ 
A------------------------------------------------------ 
E-8-------9------8------9------/----------------------- 
 
 
Refrain 
D------------------------------------------------------ 
A------------------------------------------------------ 
E-4----1----4---6----4---1----4(2x)-------------------- 
 
 
 
Verse 2 
D------------------------------------------------------ 
A------------------------------------------------------ 
E-6--4--1--9--6-6----6--4--1--9-6---6--4--1--9-6-6--2-4 
 
 
pre chourus 
D------------------------------------------------------ 
A------------------------------------------------------ 
E-8-------9------8------9------/----------------------- 
 
 
Refrain 
D------------------------------------------------------ 
A------------------------------------------------------ 
E-4----1----4---6----4---1----4(2x)-------------------- 
 
 
Bridge 
D------------------------------------------------------ 
A------------------------------------------------------ 
E-6---4---1---0(x4)------------------------------------ 
 
OUTRO- verse 1 
 
 
 
 
pre chourus 
D------------------------------------------------------ 
A------------------------------------------------------ 
E-8-------9------8------9------/----------------------- 
 
 
Refrain 
D------------------------------------------------------ 
A------------------------------------------------------ 
E-4----1----4---6----4---1----4(2x)-------------------- 
 
 
 
 
Verse 1 
D------------------------------------------------------ 
A------------------------------------------------------ 
E-6--4--1--9--6-6----6--4--1--9-6---6--4--1--9-6-6--2-4 

		  

Full key step upFull key step up
Half key step upHalf key step up
Half key step downHalf key step down
Full key step downFull key step down
hide glossary

See also:

tabs Green Day - All by myself tabs Green Day - Holiday ( Easy Version) tabs Bad Religion - Infected tabs Blink 182 - Stay Together For the Kids tabs Blink 182 - Aliens Exist tabs Green Day - Jesus of Suburbia
e-chords

Other versions:

tabs 3 days grace - Just like u tabs 3 days grace - Just like u (rythem)
auto scroll beats size up size down change color hide chords drawings
tab show chords e-chords YouTube Clip e-chords hide all tabs e-chords go to top tab

share