10 Years

Battle Lust

10 Years

tabs

by  VSWORLD

save to print version add songbook text version e-mail correct tuner
chordsukulelecavacokeyboardtabbassdrumsharmonicaflute Guitar Pro
close

there isn't a video lesson for this song

chords

Battle Lust

	  		 

Riff 1 (intro) 
 D#|-------------------------------------------------|  
 A#|-------------------------------------------------|  
 F#|-------------------------------------------------|  
 C#|-------------------------------------------------|  
 G#|-5-5-5-------5-5-5-------3-3-3-------------------|  
 C#|-------2-2-2-------2-2-2-------2-2-2-5-5-5-0-0-0-|  

 D#|---------------------------------------------|  
 A#|---------------------------------------------|  
 F#|---------------------------------------------|  
 C#|---------------------------------------------|  
 G#|-5-5-5-------5-5-5-------3-3-3---------------|  
 C#|-------2-2-2-------2-2-2-------2-2-2-5-5-5-0-|  

Riff 2   "The fact is your opinions wrong..." 
 D#|-------------------------------------------------|  
 A#|-------------------------------------------------|  
 F#|-------------------------------------------------|  
 C#|-------------------------------------------------|  
 G#|-5-5-5-------5-5-5-------3-3-3-------------------|  
 C#|-------2-2-2-------2-2-2-------2-2-2-5-5-5-0-0-0-|  

Play Riff 2 x7 

Riff 2 (final time) 
 D#|---------------------------------------------|  
 A#|---------------------------------------------|  
 F#|---------------------------------------------|  
 C#|---------------------------------------------|  
 G#|-5-5-5-------5-5-5-------3-3-3-------5-5-5-0-|  
 C#|-------2-2-2-------2-2-2-------2-2-2-5-5-5-0-|  

Riff 3   "Lovers, liars..." 
 D#|-------------------------------------------------------|  
 A#|-------------------------------------------------------|  
 F#|-------------------------------------------------------|  
 C#|-------------------------------------------------------|  
 G#|-2-2-0-2-----------2-2-0-2-----------2-2-0-2-----------|  
 C#|-2-2-0-2-0-2h3p2p0-2-2-0-2-0-2h3p2p0-2-2-0-2-0-2h3p2p0-|  

 D#|---------------------------------|  
 A#|---------------------------------|  
 F#|---------------------------------|  
 C#|-5-5-5-5-5-5-5-------------------|  
 G#|-3-3-3-3-3-3-3---5-5-5-5-5-5-5---|  
 C#|---------------0-5-5-5-5-5-5-5-0-|  

Play Riff 3 x2   "...cancer, filling your head..." 
Play Riff 2 x1 
2nd Verse (no guitar) 
Play Riff 3 x2   "Lovers, liars..." 

Riff 4 
 D#|-------------------------------------------|  
 A#|-------------------------------------------|  
 F#|-------------------------------------------|  
 C#|-------------------------------------------|  
 G#|-------------------------------------------|  
 C#|-2-0-2-5-0--2-0-2-5-0-2-0-2-3-0--2-0-2-3-0-|  

 D#|--------------------------------------------|  
 A#|--------------------------------------------|  
 F#|--------------------------------------------|  
 C#|--------------------------------2-----2-----|  
 G#|--------------------------------2-0-0-2-0-0-|  
 C#|-2-0-2-5-0--2-0-2-5-0-2-0-2-3-0---0-0---0-0-|  
                                     * *   * * 

Play the first half of Riff 4 x2 "Bound in the battle lust!" 

Riff 5 
 D#|-------------------------------------------|  
 A#|-------------------------------------------|  
 F#|-------------------------------------------|  
 C#|-------------------------------------------|  
 G#|-2-0-2-5-0--2-0-2-5-0-2-0-2-3-0--2-0-2-3-0-|  
 C#|-2-0-2-5-0--2-0-2-5-0-2-0-2-3-0--2-0-2-3-0-|  

 D#|-----------------------------------------|  
 A#|-----------------------------------------|  
 F#|-----------------------------------------|  
 C#|-----------------------------------------|  
 G#|-2-0-2-5-0--2-0-2-5-0-2-0-2-3-0--2-0-2-3-|  
 C#|-2-0-2-5-0--2-0-2-5-0-2-0-2-3-0--2-0-2-3-|  

Play Riff 3 x1 "Lovers, liars..." 

Riff 3 (alteration)   "...cancer, filling your head..." 
 D#|-------------------------------------------------------|  
 A#|-------------------------------------------------------|  
 F#|-------------------------------------------------------|  
 C#|-------------------------------------------------------|  
 G#|-2-2-0-2-----------2-2-0-2-0-x-x-x-x---2-0-2-----------|  
 C#|-2-2-0-2-0-2h3p2p0-2-2-0-2-0-x-x-x-x---2-0-2-0-2h3p2p0-|  

 D#|---------------------------------|  
 A#|---------------------------------|  
 F#|---------------------------------|  
 C#|-5-5-5-5-5-5-5-------------------|  
 G#|-3-3-3-3-3-3-3---5-5-5-5-5-5-5---|  
 C#|---------------0-5-5-5-5-5-5-5-0-|  

Play Riff 2 x1 (let last chord ring)  
		  

See also:

tabs Audioslave - Cochise tabs Red Hot Chili Peppers - Can't Stop (ver. 2) tabs Red Hot Chili Peppers - Suck My Kiss tabs Red Hot Chili Peppers - Californication tabs Incubus - Talk show on mute tabs Paramore - Misery Business (tablaturas)
e-chords

Other versions:

tabs 10 Years - Battle Lust
auto scroll beats size up size down change color hide chords drawings
tab show chords e-chords YouTube Clip e-chords hide all tabs e-chords go to top tab

share with facebook