10 Years

Don't Fight It

10 Years

tabs

by  LINEKERS

save to print version add songbook text version e-mail correct tuner
chordsukulelecavacokeyboardtabbassdrumsharmonicaflute Guitar Pro
close

there isn't a video lesson for this song

chords

Don't Fight It

	  		


Intro/Verse (clean channel) 

eb|--3-4-p0--3-4-p0--3-4-4/6------4/6-----------| 
Bb|--1-1-----1-1-----1-1------4-----------------| 
Gb|--1-1-----1-1-----1-1-----3-3----------------| 
Db|---------------------------------------------| 
Ab|---------------------------------------------| 
Db|---------------------------------------------| 

"..These waves of doubt..."(x2) 
eb|---------------------------------------------------------------------| 
Bb|------6-----------6-----------6-------4-----------4-----------4------| 
Gb|------5--5-5-5-5--5--5-5-5-5--5--55---3--3-3-3-3--3--3-3-3-3--3--33--| 
Db|-x-x--3--3-3-3-3--3--3-3-3-3--3--33---1--1-1-1-1--1--1-1-1-1--1--11--|  
Ab|-x-x--3--3-3-3-3--3--3-3-3-3--3--33---1--1-1-1-1--1--1-1-1-1--1--11--| 
Db|-x-x--3--3-3-3-3--3--3-3-3-3--3--33---1--1-1-1-1--1--1-1-1-1--1--11--| 

Pre-chorus "..buried in the past.." 
eb|--------------------1---------1--------------------| 
Bb|--------0--1------0---------0----------------------| 
Gb|---------------------------------6-6-6-6--8--------| 
Db|---------------3---------3-------6-6-6-6--8--------| 
Ab|-----0---------------------------4-4-4-4--6--------| 
Db|---0---------3---------3---------------------------| 
				P.M.-----| 

Chorus 						x2 
eb|------------------------------------------------------------------------| 
Bb|------------------------------------------------------------------------| 
Gb|------------------------------------------------------------------------| 
Db|-3--3-3-3-3-3-3--10--10-10-10-10-10-10--6--6-6-6-6-6-6--x-x-8-8-8-8-8-8-|  
Ab|-3--3-3-3-3-3-3--10--10-10-10-10-10-10--6--6-6-6-6-6-6--x-x-8-8-8-8-8-8-| 
Db|-3--3-3-3-3-3-3--10--10-10-10-10-10-10--6--6-6-6-6-6-6--x-x-8-8-8-8-8-8-| 

eb|------------------------------------------------------------------| 
Bb|------------------------------------------------------------------| 
Gb|--6--6-6-6-6-6-6--8--8-8-8-8-8-8----------------------------------| 
Db|--6--6-6-6-6-6-6--8--8-8-8-8-8-8--3--3-3-3-3-3-3--6--6-6-6-6-6-6--| 
Ab|--4--4-4-4-4-4-4--6--6-6-6-6-6-6--3--3-3-3-3-3-3--6--6-6-6-6-6-6--| 
Db|----------------------------------3--3-3-3-3-3-3--6--6-6-6-6-6-6--| 

eb|-----------------------| 
Bb|-----------------------| 
Gb|------------------8----| 
Db|--8-8-8-8-8-8-8-8-8----| 
Ab|--8-8-8-8-8-8-8-8-6----| 
Eb|--8-8-8-8-8-8-8-8------| 

2nd Verse 

Guitar 1: 
eb|--3-4-p0--3-4-p0--3-4-4/6------4/6-----------| 
Bb|--1-1-----1-1-----1-1------4-----------------| 
Gb|--1-1-----1-1-----1-1-----3-3----------------| 
Db|---------------------------------------------| 
Ab|---------------------------------------------| 
Db|---------------------------------------------| 

Guitar 2 (neck pickup):  
eb|----------------------13-----------------------------------------------| 
Bb|-------------------13-----------------------------------------13br13br-| 
Gb|------12br-10~~--------------------------------------------------------| 
Db|-----------------------------------------------------------------------| 
Ab|-----------------------------------------------------------------------| 
Db|-----------------------------------------------------------------------| 

Guitar 1: 
eb|-----------------------------------------------------------------------| 
Bb|-----------------------------------------------------------------------| 
Gb|-----------5-----------5-----------5-----3-----------3-----------3-----| 
Db|-----------3--3-3-3-3--3--3-3-3-3--3-33--1--1-1-1-1--1--1-1-1-1--1-11--| 
Ab|-----------3--3-3-3-3--3--3-3-3-3--3-33--1--1-1-1-1--1--1-1-1-1--1-11--| 
Db|-----------3--3-3-3-3--3--3-3-3-3--3-33--1--1-1-1-1--1--1-1-1-1--1-11--| 

Guitar 2 (neck pickup): 
eb|------------------------------------------------------------------| 
Bb|----------11~-------------------12--------------------------------| 
Gb|-----------------------------------13--------------12brb----------| 
Db|---------------------------------------------------------13-15----| 
Ab|------------------------------------------------------------------| 
Db|------------------------------------------------------------------| 

Guitar 1: 
eb|------------------------------------------------------------------| 
Bb|------------------------------------------------------------------| 
Gb|---5-----------5-----------5-----3-----------3-----------3--------| 
Db|---3--3-3-3-3--3--3-3-3-3--3-33--1--1-1-1-1--1--1-1-1-1--1-11-----| 
Ab|---3--3-3-3-3--3--3-3-3-3--3-33--1--1-1-1-1--1--1-1-1-1--1-11-----| 
Db|---3--3-3-3-3--3--3-3-3-3--3-33--1--1-1-1-1--1--1-1-1-1--1-11-----| 

Guitar 2 (neck pickup): 
eb|---------------------------------------------------------------| 
Bb|---------18----------------------------------------------------| 
Gb|------17-------------------------------------------------------| 
Db|-----------------------------------17brb-------15--------13----| 
Ab|---------------------------------------------------------------| 
Db|---------------------------------------------------------------| 

Guitar 1: 
eb|------------------------------------------------------------------| 
Bb|------------------------------------------------------------------| 
Gb|---5-----------5-----------5-----3-----------3-----------3--------| 
Db|---3--3-3-3-3--3--3-3-3-3--3-33--1--1-1-1-1--1--1-1-1-1--1-11-----| 
Ab|---3--3-3-3-3--3--3-3-3-3--3-33--1--1-1-1-1--1--1-1-1-1--1-11-----| 
Db|---3--3-3-3-3--3--3-3-3-3--3-33--1--1-1-1-1--1--1-1-1-1--1-11-----| 

Pre-chorus "..buried in the past.." 
eb|--------------------1---------1--------------------| 
Bb|--------0--1------0---------0----------------------| 
Gb|---------------------------------6-6-6-6--8-8-8-8--| 
Db|---------------3---------3-------6-6-6-6--8-8-8-8--| 
Ab|-----0---------------------------4-4-4-4--6-6-6-6--| 
Db|---0---------3---------3---------------------------| 
				P.M.-----| 

Chorus 						x2	 
eb|------------------------------------------------------------------------| 
Bb|------------------------------------------------------------------------| 
Gb|------------------------------------------------------------------------| 
Db|-3--3-3-3-3-3-3--10--10-10-10-10-10-10--6--6-6-6-6-6-6--x-x-8-8-8-8-8-8-|  
Ab|-3--3-3-3-3-3-3--10--10-10-10-10-10-10--6--6-6-6-6-6-6--x-x-8-8-8-8-8-8-| 
Db|-3--3-3-3-3-3-3--10--10-10-10-10-10-10--6--6-6-6-6-6-6--x-x-8-8-8-8-8-8-| 

eb|------------------------------------------------------------------| 
Bb|------------------------------------------------------------------| 
Gb|--6--6-6-6-6-6-6--8--8-8-8-8-8-8----------------------------------| 
Db|--6--6-6-6-6-6-6--8--8-8-8-8-8-8--3--3-3-3-3-3-3--6--6-6-6-6-6-6--| 
Ab|--4--4-4-4-4-4-4--6--6-6-6-6-6-6--3--3-3-3-3-3-3--6--6-6-6-6-6-6--| 
Db|----------------------------------3--3-3-3-3-3-3--6--6-6-6-6-6-6--| 

eb|-----------------------------------------------| 
Bb|-----------------------------------------------| 
Gb|------------------8--8-8-8-8--8-8-8-8-8-8------| 
Db|--8-8-8-8-8-8-8-8-8--8-8-8-8--8-8-8-8-8-8------| 
Ab|--8-8-8-8-8-8-8-8-6--6-6-6-6--6-6-6-6-6-6------| 
Db|--8-8-8-8-8-8-8-8------------------------------| 

Solo: (2x) 
eb|----------------------------------------------------------| 
Bb|----------------------------------------------------------| 
Gb|--12/13--10--12/13--10--12-13--15-15-15-15-15-15-15-15----|  
Db|----------------------------------------------------------| 
Ab|----------------------------------------------------------| 
Db|----------------------------------------------------------| 

eb|-----------------------------------| 
Bb|-----------------------------------| 
Gb|--13\12-12-12-12-12-12-12-12-12----| 
Db|-----------------------------------| 
Ab|-----------------------------------| 
Db|-----------------------------------| 

"Gone are all..." 
eb|--------------------------------------------------------------------| 
Bb|--------------------------------------------------------------------| 
Gb|--6--6-6-6-6-6-6--6-6-6-6-6-6--66-----------------------------------| 
Db|--6--6-6-6-6-6-6--6-6-6-6-6-6--66--8--8-8-8-8-8-8--8-8-8-8-8-8--88--| 
Ab|--4--4-4-4-4-4-4--4-4-4-4-4-4--44--8--8-8-8-8-8-8--8-8-8-8-8-8--88--| 
Db|-----------------------------------8--8-8-8-8-8-8--8-8-8-8-8-8--88--| 

eb|----------------------------------------------------------| 
Bb|----------------------------------------------------------| 
Gb|---6--6-6-6-6-6-6--6-6-6-6-6-6--66--8-8-8-8-9-9-9-9-------| 
Db|---6--6-6-6-6-6-6--6-6-6-6-6-6--66--8-8-8-8-9-9-9-9-------| 
Ab|---4--4-4-4-4-4-4--4-4-4-4-4-4--44--6-6-6-6-7-7-7-7-------| 
Db|----------------------------------------------------------| 
"Show me what you need.." 
eb|------------------------------------------------| 
Bb|------------------------------------------------| 
Gb|---1010101010101010-----------------------------| 
Db|---1010101010101010-88888888--66666666--8-------| 
Ab|---8-8-8-8-8-8-8-8--88888888--66666666--8-------| 
Db|--------------------88888888--66666666--8-------| 
 P.M.------------------------------------| 


eb|------------------------------------------------------------------------| 
Bb|------------------------------------------------------------------------| 
Gb|------------------------------------------------------------------------| 
Db|-3--3-3-3-3-3-3--10--10-10-10-10-10-10--6--6-6-6-6-6-6--x-x-8-8-8-8-8-8-| 
Ab|-3--3-3-3-3-3-3--10--10-10-10-10-10-10--6--6-6-6-6-6-6--x-x-8-8-8-8-8-8-| 
Db|-3--3-3-3-3-3-3--10--10-10-10-10-10-10--6--6-6-6-6-6-6--x-x-8-8-8-8-8-8-| 

eb|------------------------------------------------------------------| 
Bb|------------------------------------------------------------------| 
Gb|--6--6-6-6-6-6-6--8--8-8-8-8-8-8----------------------------------| 
Db|--6--6-6-6-6-6-6--8--8-8-8-8-8-8--3--3-3-3-3-3-3--6--6-6-6-6-6-6--| 
Ab|--4--4-4-4-4-4-4--6--6-6-6-6-6-6--3--3-3-3-3-3-3--6--6-6-6-6-6-6--| 
Db|----------------------------------3--3-3-3-3-3-3--6--6-6-6-6-6-6--| 

eb|-------------------------------------| 
Bb|-------------------------------------| 
Gb|------------------8--8-8-8-8--8-8----| 
Db|--8-8-8-8-8-8-8-8-8--8-8-8-8--8-8----| 
Ab|--8-8-8-8-8-8-8-8-6--6-6-6-6--6-6----| 
Db|--8-8-8-8-8-8-8-8--------------------| 

Outro: 
eb|--3-4-p0--3-4-p0--3-4-4/6------4/6--1--------| 
Bb|--1-1-----1-1-----1-1------4--------1--------| 
Gb|--1-1-----1-1-----1-1-----3-3-------1--------| 
Db|------------------------------------1--------| 
Ab|---------------------------------------------| 
Db|---------------------------------------------| 
 
		  

See also:

tabs Audioslave - Cochise tabs Red Hot Chili Peppers - Can't Stop (ver. 2) tabs Red Hot Chili Peppers - Suck My Kiss tabs Red Hot Chili Peppers - Californication tabs Incubus - Talk show on mute tabs Paramore - Misery Business (tablaturas)
e-chords

Other versions:

tabs 10 Years - Don't Fight It
auto scroll beats size up size down change color hide chords drawings
tab show chords e-chords YouTube Clip e-chords hide all tabs e-chords go to top tab

share with facebook