10 Years

Baptized In Fire

10 Years

tabs

by  HUGO_RODRIGUES

save to print version add songbook text version e-mail correct tuner
chordsukulelecavacokeyboardtabbassdrumsharmonicaflute Guitar Pro
close

there isn't a video lesson for this song

chords

Baptized In Fire

	  		
Riff 1 (light distortion) "So is your life worth saving..." 
 D#|-------------------------------------------------------------------|  
 A#|-------------------------------------------------------------------|  
 F#|-------------------------------------0--0-0-0-0--0-0-0-3--3-2--2---|  
 C#|-5--5-5-5-5--5-5-5-8--8-8-8-3--3-3-3-1--1-1-1-3--3-3-1-0--0-0--0-3-|  
 G#|-5--5-5-5-6--6-6-5-8--8-8-8-3--3-3-3-3--3-3-3-3--3-3-3-1--1-0--0-3-|  
 C#|-5--5-5-5-5--5-5-5-8--8-8-8-3--3-3-3-----------------------------3-|  

Play Riff 1 x2 (second time with full distortion) 

Riff 2    "Over-exposure..." 
 D#|-----------------------------------------------|  
 A#|-----------------------------------------------|  
 F#|-----------------------------------------------|  
 C#|-----------------------------------------------|  
 G#|-5-5-5-5--5-6-6-6-6-6-5-3-3-3-3--3-5-5-5-5-5-5-|  
 C#|-5-5-5-5--5-5-5-5-5-5-5-3-3-3-3--3-3-3-3-3-3-3-|  
    * * * *  * * * * * * * * * * *  * * * * * * * 

 D#|-------------------------------------------------|  
 A#|-------------------------------------------------|  
 F#|-------------------------------------------------|  
 C#|-5-5-5-5-5-5-5-5-5-5-5-5-3-3-3-3-3-3-0-0-0-0-0-0-|  
 G#|-3-3-3-3-3-3-6-6-6-6-6-6-1-1-1-1-1-1-1-1-1-1-1-0-|  
 C#|-------------------------------------------------|  
    * * * * * * * * * * * * * * * * * * * * * * * * 

Play Riff 2 x3 (last time, gradually release palm mute with the last chord) 

Riff 3   "Sweet songs won't last you long..." 
 D#|--------------------|  
 A#|--------------------|  
 F#|--------------------|  
 C#|-1-----1----x-x-3-3-|  
 G#|-1-----1----x-x-3-3-|  
 C#|-1-----1----x-x-3-3-|  

Riff 4   "So is your life worth saving..." 
 D#|-------------------------------------------------------------------------|  
 A#|-------------------------------------------------------------------------|  
 F#|-------------------------------------0--0-0-0-0--0-0-0-3--3-2--2---------|  
 C#|-5--5-5-5-5--5-5-5-8--8-8-8-3--3-3-3-1--1-1-1-1--1-1-1-0--0-0--0-3--3-3-0|  
 G#|-5--5-5-5-5--5-5-5-8--8-8-8-3--3-3-3-3--3-3-3-3--3-3-3-1--1-0--0-3--3-3-0|  
 C#|-5--5-5-5-5--5-5-5-8--8-8-8-3--3-3-3-----------------------------3--3-3-0|  

Play Riff 4 x2  "...this story has no ending..." 

Riff 5 
 D#|-----------------------------------------------|  
 A#|-----------------------------------------------|  
 F#|-----------------------------------------------|  
 C#|-----------------------------------------------|  
 G#|-----------------------------------------------|  
 C#|-5-0-5-6-5-0-5-0-5-6-5-0-5-5-5-8-8-8-3-3-3-3-6-|  

Play Riff 1 x1 (light distortion) 
Play Riff 2 x2 (last time, gradually release palm mute with the last chord) 
Play Riff 3 x1  "Sad songs won't last you long..." 
Play Riff 4 x2  "So is your life worth saving..." 

Riff 6 (alteration of Riff 5) "Baptized in fire!" 
 D#|-------------------------------------------------|  
 A#|-------------------------------------------------|  
 F#|-------------------------------------------------|  
 C#|-------------------------------------------------|  
 G#|-------------------------------------------------|  
 C#|-5-0-5-6-5-0-5-0-5-6-5-0-5-5-5-8-8-8-3-3-3-6-6-6-|  

 D#|-------------------------------------------------|  
 A#|-------------------------------------------------|  
 F#|-------------------------------------------------|  
 C#|-----------------------------------------------5-|  
 G#|-----------------------------------------------5-|  
 C#|-5-0-5-6-5-0-5-0-5-6-5-0-5-5-5-8-8-8-3-3-3-3-6-5-|  

Play Riff 1 x1 (light distortion) 
Play Riff 4 x2 (light distortion) "So is your life worth saving now..." 

Riff 4 (final time ends with this chord): 
 D#|------|  
 A#|------|  
 F#|------|  
 C#|-0~---|  
 G#|-1~---|  
 C#|------|  

Play Riff 4 x2 (distortion) "So is your life worth saving..." 

Riff 7 (ending)   "Baptized in fire!" 
 D#|-------------------------------------------------|  
 A#|-------------------------------------------------|  
 F#|-------------------------------------------------|  
 C#|-------------------------------------------------|  
 G#|-------------------------------------------------|  
 C#|-5-0-5-6-5-0-5-0-5-6-5-0-5-5-5-8-8-8-3-3-3-6-6-6-|  

 D#|------------------------------------|  
 A#|------------------------------------|  
 F#|------------------------------------|  
 C#|-------------------------5--8--3--6-|  
 G#|-------------------------5--8--3--6-|  
 C#|-5-0-5-6-5-0-5-0-5-6-5-0-5--8--3--6-|  

 D#|---------------------------------|  
 A#|---------------------------------|  
 F#|----------------------------7~---|  
 C#|-5-5-5-5--5-5-5-5--8-8-8-8--5~---|  
 G#|-5-5-5-5--5-5-5-5--5-5-5-5--5~---|  
 C#|-5-5-5-5--5-5-5-5--5-5-5-5--5~---|  

And there you have it, one of the bonus tracks from Minus The Machine. Enjoy! 
		  

See also:

tabs Audioslave - Cochise tabs Red Hot Chili Peppers - Can't Stop (ver. 2) tabs Red Hot Chili Peppers - Suck My Kiss tabs Red Hot Chili Peppers - Californication tabs Incubus - Talk show on mute tabs Paramore - Misery Business (tablaturas)
e-chords

Other versions:

tabs 10 Years - Baptized In Fire
auto scroll beats size up size down change color hide chords drawings
tab show chords e-chords YouTube Clip e-chords hide all tabs e-chords go to top tab

share with facebook