Weezer

home > Weezer

We are all on drugs Bass Tab

Weezer

Difficulty: nolevelnolevel

by europeu

tuner correct add songbook print version text version save to e-mail
chordsukulelecavacokeyboardtabbassdrumsharmonicsflute Guitar Pro
chords

We are all on drugs

  		Intro 
G|-------------------------------------------------------------------| 
D|-------------------------------------------------------------------| 
A|--6-6-6-6-6-6-6-6--------------------------------------------------| 
E|------------------8-8-8-8-8-8-8-8-7-7-7-7-7-7-7-7-9-9-9-9-9-9-9-9--|x2 
 
Verse 
G|-------------------------------------------------------------------| 
D|-------------------------------------------------------------------| 
A|--6-6-6-6-6-6-6-6--------------------------------------------------| 
E|------------------8-8-8-8-8-8-8-8-7-7-7-7-7-7-7-7-9-9-9-9-9-9-9-9--|x4 
 
Chorus 
G|-------------------------------------------------------------------| 
D|-------------------------------------------------------------------| 
A|--6-6-6-6-6-6-6-6--------------------------------------------------| 
E|------------------8-8-8-8-8-8-8-8-7-7-7-7-7-7-7-7-9-9-9-9-9-9-9-9--|x4 
 
Verse 
G|-------------------------------------------------------------------| 
D|-------------------------------------------------------------------| 
A|--6-6-6-6-6-6-6-6--------------------------------------------------| 
E|------------------8-8-8-8-8-8-8-8-7-7-7-7-7-7-7-7-9-9-9-9-9-9-9-9--|x4 
 
Chorus 
G|-------------------------------------------------------------------| 
D|-------------------------------------------------------------------| 
A|--6-6-6-6-6-6-6-6--------------------------------------------------| 
E|------------------8-8-8-8-8-8-8-8-7-7-7-7-7-7-7-7-9-9-9-9-9-9-9-9--|x4 
 
Bridge 
G|-------------------------------------------------------------------| 
D|-------------------------------------------------------------------| 
A|-------------------------------------------------------------------| 
E|--4-4-4-4-4-4-4-4-4-4-4-4-6-6-6-6-7-7-7-7-7-7-7-7-7-7-7-7-7-7-7-7--| 
 
G|---------------------------------------------------------| 
D|---------------------------------------------------------| 
A|---------------------------------------------------------| 
E|--4-4-4-4-4-4-4-4-4-4-4-4-6-6-6-6-7-7-7-7-7-7-7-7-9~~10~~| 
 
During Guitar Solo 
G|-------------------------------------------------------------------| 
D|-------------------------------------------------------------------| 
A|--6-6-6-6-6-6-6-6--------------------------------------------------| 
E|------------------8-8-8-8-8-8-8-8-7-7-7-7-7-7-7-7-9-9-9-9-9-9-9-9--|x4 
 
Intro 
G|-------------------------------------------------------------------| 
D|-------------------------------------------------------------------| 
A|--6-6-6-6-6-6-6-6--------------------------------------------------| 
E|------------------8-8-8-8-8-8-8-8-7-7-7-7-7-7-7-7-9-9-9-9-9-9-9-9--|x2 
 
Chorus 
G|-------------------------------------------------------------------| 
D|-------------------------------------------------------------------| 
A|--6-6-6-6-6-6-6-6--------------------------------------------------| 
E|------------------8-8-8-8-8-8-8-8-7-7-7-7-7-7-7-7-9-9-9-9-9-9-9-9--|x8 
 
End Note 
G|----------| 
D|----------| 
A|--6~~~~~~~| 
E|----------|Hold This Note For A Little Bit 
 
 

	  

Search Paypal
auto scroll beats size up size down change color hide chords drawings
tab show chords e-chords YouTube Clip e-chords hide all tabs e-chords go to top tab