Weezer

home > Weezer

No one else Bass Tab

Weezer

Difficulty: nolevelnolevel

by Seitoshi

tuner correct add songbook print version text version save to e-mail
chordsukulelecavacokeyboardtabbassdrummharmonicsflute Guitar Pro
chords

No one else

  		Tuning: standard 

|------------------------------------------| 
|------------------------------------------| Intro goes straight into verse. 
|---7-7-7-6-6-6-4-4-4-2-2-2----------------| 
|---------------------------5-4-2-4--------| 

|----------------------------------------------------------->     
|----------------------------------------------------------->      
|--------------------------------------------------2-2-2-2-->    Verse.   
|--0-0-0-0-0-0-0-0-5-5-5-5-4-4-4-4-2-2-2-2-2-2-2-2----------> 
                                    
 <--------------------------------------------------------------------------|  
 <--------------------------------------------------------------------------|  
 <---------------------------------------------------------2-2-2-2-2-2-2-2--|   
 <-5-5-5-5-4-4-4-4-4-4-4-4-5-5-5-5-4-4-4-4-2-2-2-2-2-2-2-2------------------| 

|---------------1-1----------------------|  
|-----------2-2--------------------------| PreChorus. 
|---4-4-4-4---------------------2-2------| Play 2x. 
|-------------------2-2-2-2-4-4----------| 

Chorus (play 4x): 
|---------------------------------------------------------------------|  
|---------------------------------------------------------------------|  
|-------------------2-2-2-2-2-2-2-2-4-4-4-4-4-4-4-4-------------------|  
|---0-0-0-0-0-0-0-0---------------------------------5-5-5-5-5-5-5-5---| 

|-------------------| 
|-------------------|   
|-------------2-2---|   
|-2-2-2-4-4-4-------| 


|----------------------------------------------------------------------------|  
|----------------------------------------------------------------------------| 
|------------------------------------------------------------2---------------| 
|---4-4-4-4-4-4-4-4-5-5-5-5-5-5-5-5-4-4-4-4-4-4-4-4--5-5-4-4-----------------| 
	  

Search Paypal
auto scroll beats size up size down change color hide chords drawings
tab show chords e-chords YouTube Clip e-chords hide all tabs e-chords go to top tab