Valerio Scanu

Ricordati Di Noi Bass Tab

Valerio Scanu

bass Beginner beginner

by  RURY_BASS

save to print version add songbook text version e-mail correct tuner
chordsukulelecavacokeyboardtabbassdrumsharmonicaflute Guitar Pro
close

there isn't a video lesson for this song

chords

Ricordati Di Noi Bass Tab

	  		-------------------------------------------------------------------- 
           RiCORDATi Di Noi – VALERiO SCANU <3 
--------------------------------------------------------------------  
Artista (Artist): Valerio Scanu <3 
Canzone (Song): Ricordati di noi <3 
Album: Hey Vale! <3 

  
Strofa (Verse):   “Ti Ricordi quelle corse con il cuore in gola.....” 
  
|--------------------------------------------------------------------| 
 |-------------------------------------------------------------------| 
 |--------5-5-5-5---0-0-0-0---2-2-2-2--------------------------------| x 2 
 |---------------------------------------3-3-3-2---------------------| 


  
Pre-Ritornello (Pre Chorus):    “Non sapevamo che a volte....” 
  
 |------------------------------------------------------------------| 
 |------------------------------------------------------------------|            
 |--------------3-3-----------------------3-3---5~------------------| 
 |--------------------3~--------------------------------------------| 


Ritornello (Chorus): “Io non mi dimentico dei sogni irraggiungibili....” 

 |------------------------------------------------------------------| 
 |-------------------2----------------------------------------------| 
 |--------5-5-5---5----4-4-4-----4-5-2-2-2-----2-2------------------| x 2 
 |----------------------------------------------------3-3-3-2-------| 

 |-------------------------------------------------------------------| 
 |------------------2------------------------------------------------| 
 |-------5-5-5---5-----4-4-4-----4-5-4~------------------------------| 
 |-------------------------------------------------------------------| 


Strofa (Verse):  “Ogni tanto passo ancora sotto casa tua.....” 
  
 |------------------------------------------------------------------| 
 |------------------------------------------------------------------| 
 |--------5-5-5-5---0-0-0-0---2-2-2-2-------------------------------| x 2 
 |----------------------------------------------3-3-3-2-------------| 
  

Pre-Ritornello (Pre Chorus):    “Non lo sapeva il destino......” 
  
 |-------------------------------------------------------------------| 
 |-------------------------------------------------------------------|            
 |--------------3-3--------------------------3-3---5~----------------| 
 |--------------------3~---------------------------------------------| 

  
Ritornello (Chorus): 

 |----------------------------------------------------------------| 
 |-------------------2--------------------------------------------| 
 |--------5-5-5---5----4-4-4-----4-5-2-2-2-----2-2----------------| x 2 
 |---------------------------------------------------3-3-3-2------| 

  
Bridge:   “Ricordati di Noi...Di Noi” 
 |----------------------------------------------------2~--------------| 
 |--------------------------------------------2-4-2-------------------| 
 |-----5-4-2-0~-------0-2-0----0~------5-4-2--------------------------| 
 |------------------3--------3----------------------------------------| 


“Na na na na na na na.....” + Ritornello (Chorus) x 4 

 |---------------------------------------------------------------| 
 |----------------2----------------------------------------------| 
 |-----5-5-5---5----4-4-4-----4-5-2-2-2----2-2-------------------| x 4 
 |------------------------------------------------3-3-3-2--------| 


  (Na na na na na na na....) :  
 |---------------------------------------------------------------------------| 
 |---------------------------------------------------------------------------| 
 |--5-5-5-5---0-0-0-0---2-2-2-2----------------------------------------------|  
 |---------------------------------3-3-3-2>>>---(diminuendo)---(fade out)----| 



  ~ = Lasciare suonare (Let Ring) 
  > = Diminuendo (Fade Out) 
  
Tablatura di Rury_Bass           :::Valerio Sei F a n t s t i c o::::: 
Tabbed by Rury_Bass 
		  

auto scroll beats size up size down change color hide chords drawings
tab show chords e-chords YouTube Clip e-chords hide all tabs e-chords go to top tab

share