Moderatto

Reventon

Moderatto

bass

by  TARIKIKE

save to print version add songbook text version e-mail correct tuner
chordsukulelecavacokeyboardtabbassdrumsharmonicaflute Guitar Pro
close

there isn't a video lesson for this song

chords

Reventon

	  		0:18 
G|----| 
D|----| 
A|----| 
E|-0--| 
0:26 
Oh, se está poniendo duro 
Viviendo lo que tú me haces vivir 
Mis sueños me enloquece 
Quisiera que los vieras junto a mí 
G|---------------------------| 
D|---------------------------| 
A|---------------------------| x2 
E|--555555555555--------0----| 

OH, un raro carnal, con los ojos de animal 
tan rojos como el mismo Sol!!! 
Y la chica de la esquina, tomando su tequila 
pidiendo a gritos atención 

0:44 
G|------| 
D|------| 
A|------| 
E|-5s1--| 

0:54 
Oh si, es como el trueno, todo es desenfreno 
Las bocinas tronadas, y la banda rockeaba 
Yeah, yeah, yeah, yeah 
G|--------------------------------------------------------------| 
D|--------------------------------------------------------------| 
A|---------------------------2222222----------------------------| 
E|-0-----222222222--55555555--------00000-0-0000-0-0000?0-0000--| 

CORO: 
1:07 
La pista incendiada, la greña alocada 
Rockeando en este reventón 
Y la chica de la esquina me grita por la playa 
que ya se armó todo un reventón 
G|------------------------| 
D|------------------------| 
A|-------------2222-------|  x2 
E|-2222---5555------0000--| 

RE-VEN-TÓN 
G|-------------------------------------| 
D|-------------------------------------| 
A|-3/4-----3/4-----3/4----3/4----3/4---| 
E|----00000---00000---00000?-0000------| 

1:29 
G|----| 
D|----| 
A|----| 
E|-0--| 

Estoy buscando algo, 
Alguien con quien pueda reventar 
Y luego te persigo, 
Te marchas sin poderte atrapar 
G|---------------------------| 
D|---------------------------| 
A|---------------------------| x2 
E|--555555555555--------0----| 

Oh, al raro carnal se le empieza a patinar 
y levanta los brazos al cielo, 
Y la chica de la esquina nos podría matar 
su mirada tan fría como el hielo 

2:00 
OH si, estoy electrizado, un poco asustado, 
las bocinas tronadas, y la banda rockeaba 
Yeah, yeah, yeah, yeah 
G|--------------------------------------------------------------| 
D|--------------------------------------------------------------| 
A|---------------------------2222222----------------------------| 
E|-0-----222222222--55555555--------00000-0-0000-0-0000?0-0000--| 

CORO: 
2:13 
La pista incendiada, la greña alocada 
Rockeando en este reventón 
Y la chica de la esquina me grita por la playa 
que ya se armó todo un reventón 
G|------------------------| 
D|------------------------| 
A|-------------2222-------|  x2 
E|-2222---5555------0000--| 

RE-VEN-TÓN 
G|-------------------------------------| 
D|-------------------------------------| 
A|-3/4-----3/4-----3/4----3/4----3/4---| 
E|----00000---00000---00000?-0000------| 

2:31 SOLO 
G|--------------------------------------------------| 
D|--------------------------------------------------| 
A|------3-----3/4-----3----3/4----3----3/4----------| 
E|-00000-00000---00000?0000---0000-0000---00000000--| 

Escuchen bien se vuelven a repetir las notas 

ya solo para el final.. 
RE-VEN- RE-VEN-TON!! RE-VEN RE-VEN-TON!! 
G|------------------------------------| 
D|------------------------------------| 
A|--------5------5-----5-----5--------| 
E|-0000000-000000-00000-00000----0----| 
		  

auto scroll beats size up size down change color hide chords drawings
tab show chords e-chords YouTube Clip e-chords hide all tabs e-chords go to top tab

share