Moderatto

1000 Demonios

Moderatto

bass Expert expert

by  TARIKIKE

save to print version add songbook text version e-mail correct tuner
chordsukulelecavacokeyboardtabbassdrumsharmonicaflute Guitar Pro
close

there isn't a video lesson for this song

chords

1000 Demonios

	  		tengo mil maneras diferentes de decirte.... 

G||--------------------------| 
D||0-------------------------| 
A||---------2----------------| 
E||----3------------5--------| 


PRECORO 

algo cambio dentro de mi... 

G||--------------------------| 
D||------------------------0-| 
A||----------2---------------| 
E||-3----5--------3---5------| 

Coro 
van como mil veces que ... 

G||---------------------------------------------- 
D||-0-00---------------0-00---------------------- 
A||-------------------------------2--0-------0-- 
E||---2-22--3-33-5-55-------2-22---------3------- 


Intro 
(pero ahora lleva..) 
G||--------------------------| 
D||0-------------------------| 
A||---------2----------------| 
E||----3------------5--------| 

Estrofa 
Tuve mil dolores... 
G||--------------------------| 
D||0-------------------------| 
A||---------2----------------| 
E||----3------------5--------| 

Precoro 
mi corazon se esta rompiendo 
G||----------------------------- 
D||---------------0---0------0-- 
A||----------2-2-2--2------0---- 
E||-3----5---------------3------ 

Coro 
van como mil veces que ... 

G||---------------------------------------------- 
D||-0-00---------------0-00---------------------- 
A||-------------------------------2--0-------0-- 
E||---2-22--3-33-5-55-------2-22---------3------- 

Solo...: hacen lo mismo que en Precoro 

Coro... 

G||------------------------------------------------------------ 
D||------------------------------------------------------------ 
A||----------------------------2-22----------------4--2---0--2- 
E||-0-00---4-44---5-55--0-00---------0-00---4-44--------------- 
		  

auto scroll beats size up size down change color hide chords drawings
tab show chords e-chords YouTube Clip e-chords hide all tabs e-chords go to top tab

share