Tina Turner

home > Tina Turner

We don't need another hero Bass Tab

Tina Turner

Difficulty: nolevelnolevel

by terr%5Fschmitz

tuner correct add songbook print version text version save to e-mail
chordsukulelecavacokeyboardtabbassdrumsharmonicsflute Guitar Pro
chords

We don't need another hero

	  
Intro 
G|-----------------|-----------------|-----------------|-----------------| 
D|-----------------|-----------------|-----------------|-----------------| 
A|-2---2---2-2---2-|-----------------|-2---2---2-2--2--|-----------------| 
E|-----------------|-2---2---2-2---2-|-----------------|-2---2---2-2--2--| 
    1 & 2 & 3 & 4 &   1 & 2 & 3 & 4 &   1 & 2 & 3 & 4 &   1 & 2 & 3 & 4 & 
G|----------6-6-44-|-----------------|-----------------| 
D|-2--2---4-------6|-----------------|-----------------| 
A|-----------------|-4--22--4-4-22---|-4--22--4-4-22---| 
E|-----------------|------4-------4--|------4-------4--| 
    1 & 2 & 3 & 4 &   1 & 2 & 3 & 4 &   1 & 2 & 3 & 4 &   

Verse 
G|-----------------|-----------------|-----------------|-----------------| 
D|-----------------|-----------------|-----------------|-----------------| 
A|-2---2---2-2---2-|-----------------|-2---2---2-2--2--|-----------------| 
E|-----------------|-2---2---2-2---2-|-----------------|-2---2---2-2--2--| 
    1 & 2 & 3 & 4 &   1 & 2 & 3 & 4 &   1 & 2 & 3 & 4 &   1 & 2 & 3 & 4 & 

G|----------6-6-44-|-----------------|-----------------| 
D|-2--2---4-------6|-----------------|-----------------| 
A|-----------------|-4--22--4-4-22---|-4--22--4-4-22---| 
E|-----------------|------4-------4--|------4-------4--| 
    1 & 2 & 3 & 4 &   1 & 2 & 3 & 4 &   1 & 2 & 3 & 4 &   

G|-----------------|-----------------|-----------------|-----------------| 
D|-----------------|-----------------|-----------------|-----------------| 
A|-2---2---2-2---2-|-----------------|-2---2---2-2--2--|-----------------| 
E|-----------------|-2---2---2-2---2-|-----------------|-2---2---2-2--2--| 
    1 & 2 & 3 & 4 &   1 & 2 & 3 & 4 &   1 & 2 & 3 & 4 &   1 & 2 & 3 & 4 & 

G|----------6-6-44-|-----------------|-----------------| 
D|-2--2---4-------6|-----------------|-----------------| 
A|-----------------|-4--22--4-4-22---|-4--22--4-4-22---| 
E|-----------------|------4-------4--|------4-------4--| 
    1 & 2 & 3 & 4 &   1 & 2 & 3 & 4 &   1 & 2 & 3 & 4 &   

Pre-Chorus 
G|-----------------|-----------------|-----------------|-----------------| 
D|-2----2-2-2--2---|-4----4-4-4--4---|-----------------|-----------------| 
A|-----------------|-----------------|-4---2---4---2---|-4---2---4---2---| 
E|-----------------|-----------------|-------4-------4-|-------4-------4-| 
    1 & 2 & 3 & 4 &   1 & 2 & 3 & 4 &   1 & 2 & 3 & 4 &   1 & 2 & 3 & 4 & 
G|-----------------|-----------------|-----------------|-----------------| 
D|-2----2-2-2--2---|-4----4-4-4--4---|-----------------|-----------------| 
A|-----------------|-----------------|-4---2---4---2---|-----------------| 
E|-----------------|-----------------|-------4-------4-|-----------------| 
    1 & 2 & 3 & 4 &   1 & 2 & 3 & 4 &   1 & 2 & 3 & 4 &   1 & 2 & 3 & 4 & 

Chorus 
G|-----------------|-----------------|-----------------|-----------------------| 
D|-------2--4------|-------2--4------|-------2--4------|-----------------------| 
A|-----4-----------|-----4-----------|-----4-----------|-4-2---4-2---4-2--4-2--| 
E|-0-2--------222--|-0-2--------222--|-0-2--------222--|-----4-----4----4-----4| 
    1 & 2 & 3 & 4 &   1 & 2 & 3 & 4 &   1 & 2 & 3 & 4 &   1 & 2 & 3 & 4 & 5 & 6 

Verse 
G|-----------------|-----------------|-----------------|-----------------| 
D|-----------------|-----------------|-----------------|-----------------| 
A|-2---2---2-2---2-|-----------------|-2---2---2-2--2--|-----------------| 
E|-----------------|-2---2---2-2---2-|-----------------|-2---2---2-2--2--| 
    1 & 2 & 3 & 4 &   1 & 2 & 3 & 4 &   1 & 2 & 3 & 4 &   1 & 2 & 3 & 4 & 
G|----------6-6-44-|-----------------|-----------------| 
D|-2--2---4-------6|-----------------|-----------------| 
A|-----------------|-4--22--4-4-22---|-4--22--4-4-22---| 
E|-----------------|------4-------4--|------4-------4--| 
    1 & 2 & 3 & 4 &   1 & 2 & 3 & 4 &   1 & 2 & 3 & 4 &   
G|-----------------|-----------------|-----------------|-----------------| 
D|-----------------|-----------------|-----------------|-----------------| 
A|-2---2---2-2---2-|-----------------|-2---2---2-2--2--|-----------------| 
E|-----------------|-2---2---2-2---2-|-----------------|-2---2---2-2--2--| 
    1 & 2 & 3 & 4 &   1 & 2 & 3 & 4 &   1 & 2 & 3 & 4 &   1 & 2 & 3 & 4 & 
G|----------6-6-44-|-----------------|-----------------| 
D|-2--2---4-------6|-----------------|-----------------| 
A|-----------------|-4--22--4-4-22---|-4--22--4-4-22---| 
E|-----------------|------4-------4--|------4-------4--| 
    1 & 2 & 3 & 4 &   1 & 2 & 3 & 4 &   1 & 2 & 3 & 4 &   

Pre-Chorus 
G|-----------------|-----------------|-----------------|-----------------| 
D|-2----2-2-2--2---|-4----4-4-4--4---|-----------------|-----------------| 
A|-----------------|-----------------|-4---2---4---2---|-4---2---4---2---| 
E|-----------------|-----------------|-------4-------4-|-------4-------4-| 
    1 & 2 & 3 & 4 &   1 & 2 & 3 & 4 &   1 & 2 & 3 & 4 &   1 & 2 & 3 & 4 & 
G|-----------------|-----------------|-----------------|-----------------| 
D|-2----2-2-2--2---|-4----4-4-4--4---|-----------------|-----------------| 
A|-----------------|-----------------|-4---2---4---2---|-----------------| 
E|-----------------|-----------------|-------4-------4-|-----------------| 
    1 & 2 & 3 & 4 &   1 & 2 & 3 & 4 &   1 & 2 & 3 & 4 &   1 & 2 & 3 & 4 & 

Chorus 
G|-----------------|-----------------|-----------------|-----------------| 
D|-------2--4------|-------2--4------|-------2--4------|-----------------| 
A|-----4-----------|-----4-----------|-----4-----------|-4---2-----------| 
E|-0-2--------222--|-0-2--------222--|-0-2-------------|---------5-------| 
    1 & 2 & 3 & 4 &   1 & 2 & 3 & 4 &   1 & 2 & 3 & 4 &   1 & 2 & 3 & 4 &  

Pre-Chorus 
G|-----------------|-----------------|-----------------|-----------------| 
D|-----------------|-----------------|-----------------|-----------------| 
A|-----------------|-4---4---4-4-4-4-|-----------------|-4---4---4-4-4-4-| 
E|-5---5---5-5-5-5-|-----------------|-5---5---5-5-5-5-|-----------------| 
    1 & 2 & 3 & 4 &   1 & 2 & 3 & 4 &   1 & 2 & 3 & 4 &   1 & 2 & 3 & 4 & 

G|-----------------|-----------------|-----------------|-----------------| 
D|-----------------|-2---2---2-2-2-2-|-----------------|-2---------------| 
A|-5---5---5-5-5-5-|-----------------|-5---5---5-5-5-5-|-----------------| 
E|-----------------|-----------------|-----------------|-----------------| 
    1 & 2 & 3 & 4 &   1 & 2 & 3 & 4 &   1 & 2 & 3 & 4 &   1 & 2 & 3 & 4 $ 
	  

Search Paypal
auto scroll beats size up size down change color hide chords drawings
tab show chords e-chords YouTube Clip e-chords hide all tabs e-chords go to top tab