Three Degrees

When Will I See You Again

Three Degrees

bass

by  ALYSLIMA

save to print version add songbook text version e-mail correct tuner
chordsukulelecavacokeyboardtabbassdrumsharmonicaflute Guitar Pro
close

there isn't a video lesson for this song

chords

When Will I See You Again

	  		 Intro 
  Q=120 
 4/4 
  Gtr I 
   Q  E E Q  Q    E Q  E H      E Q  E H      E Q  E H      E Q  E H 
G|--------------|-------------|-------------|-------------|-------------| 
D|--------4--6--|-7-7--7-7----|-6-6--6-6----|-4-4--4-4----|-------------| 
A|------7-------|-------------|-------------|-------------|-7-7--7-7----| 
E|--------------|-------------|-------------|-------------|-------------| 


   E Q  E H      E Q  E H      E Q  E +E  Q  E   +E  Q  E +E  E E E 
G|-------------|-------------|-----------------|----------------1-4--|| 
D|-------------|-------------|-----------------|--------0-(0)-2------|| 
A|-5-5--5-5----|-4-4--4-4----|------------0--2-|-(2)-4---------------|| 
E|-------------|-------------|-0-2--4-(4)------|---------------------|| 


  Pre-Verse 
   E Q  E H      E Q  E H      E Q  E H      E Q  E H 
G|-------------|-------------|-------------|-------------| 
D|-7-7--7-7----|-6-6--6-6----|-4-4--4-4----|-------------| 
A|-------------|-------------|-------------|-7-7--7-7----| 
E|-------------|-------------|-------------|-------------| 


   E Q  E H      E Q  E H      E Q  E H      E Q  E E E E E 
G|-------------|-------------|-------------|-----------------|| 
D|-------------|-------------|-------------|-----------------|| 
A|-5-5--5-5----|-4-4--4-4----|--------7----|--------7-7---7--|| 
E|-------------|-------------|-0-0--0------|-0-0--0-----7----|| 


  1st Verse 
   E Q  E H      E Q  E H      E Q  E H      E Q  E H 
G|-------------|-------------|-------------|-------------| 
D|--------7----|-6-6--6-6----|-4-4--4-4----|-------------| 
A|-------------|-------------|-------------|-7-7--7-7----| 
E|-5-5--5------|-------------|-------------|-------------| 


   E Q  E H      E Q  E H      E Q  E H      E Q  E H 
G|-------------|-------------|-------------|-------------| 
D|-------------|-------------|-------------|-------------| 
A|-5-5--5-5----|-4-4--4-4----|-7-7--7-7----|-7-7--7-7----| 
E|-------------|-------------|-------------|-------------| 


   E Q  E E Q  E   E Q  E E Q  E   E Q  E E Q  E   E Q  E E Q  E 
G|---------------|---------------|---------------|----------------| 
D|-------------6-|---------------|-4-4--4-4-4----|-4-4--4-4-4--4--| 
A|-4-4--4-4-4----|-4-4--4-4-4--4-|-------------4-|----------------| 
E|---------------|---------------|---------------|----------------| 


   E Q  E E Q  E   E Q  E E Q  E   E E E E E E E E   E E Q  H 
G|---------------|---------------|-----------------|-------------|| 
D|---------------|---------------|-----------------|-------------|| 
A|-------------9-|---------------|-7-7-7-7-7-7-7-7-|-7-----------|| 
E|-7-7--7-7-7----|-7-7--7-7-7--7-|-----------------|-------------|| 


  2nd Verse 
   E Q  E H      E Q  E H      E Q  E H      E Q  E H 
G|-------------|-------------|-------------|-------------| 
D|-7-7--7-7----|-6-6--6-6----|-4-4--4-4----|-------------| 
A|-------------|-------------|-------------|-7-7--7-7----| 
E|-------------|-------------|-------------|-------------| 


   E Q  E H      E Q  E H      E Q  E H      E Q  E H 
G|-------------|-------------|-------------|-------------| 
D|-------------|-------------|-------------|-------------| 
A|-5-5--5-5----|-4-4--4-4----|-7-7--7-7----|-7-7--7-7----| 
E|-------------|-------------|-------------|-------------| 


  Segno $ 
   E Q  E E Q  E   E Q  E E Q  E   E Q  E E Q  E   E Q  E E Q  E 
G|---------------|---------------|---------------|----------------| 
D|-------------6-|---------------|-4-4--4-4-4----|-4-4--4-4-4--4--| 
A|-4-4--4-4-4----|-4-4--4-4-4--4-|-------------4-|----------------| 
E|---------------|---------------|---------------|----------------| 


   E Q  E E Q  E   E Q  E E Q  E   E E E E E E E E   E E Q  H 
G|---------------|---------------|-----------------|-------------|| 
D|---------------|---------------|-----------------|-------------|| 
A|-------------9-|---------------|-7-7-7-7-7-7-7-7-|-7-----------|| 
E|-7-7--7-7-7----|-7-7--7-7-7--7-|-----------------|-------------|| 


  Chorus 
                                      To Coda 
   E E E E H      E Q  E E Q  E   E E E E H      E Q  E E Q  E 
G|--------------|---------------|--------------|----------------| 
D|-7-7-4---7----|---------------|-7-7-4---7----|----------------| 
A|-------7------|-5-5--5-7-7--7-|-------7------|-5-5--5-7-7--7--| 
E|--------------|---------------|--------------|----------------| 


   E Q  E +H       E Q  E H      E Q  E H      E Q  E Q  E E 
G|---------------|-------------|-------------|----------------| 
D|-7-7--7-(7)----|-------------|-4-4--4-4----|-4-4--4-4--4----| 
A|---------------|-7-7--7-7----|-------------|-------------7--| 
E|---------------|-------------|-------------|----------------| 


                                         Dal Segno al Coda 
   E Q  E H      E Q  E H      E Q  E H      E Q  E H 
G|-------------|-------------|-------------|--------------|| 
D|-------------|-------------|-------------|--------------|| 
A|-5-5--5-5----|-7-7--7-7----|-------------|-7-7--7-7-----|| 
E|-------------|-------------|-7-7--7-7----|--------------|| 


   Outro 
   Coda & 
     E Q  E E Q  E   E E E E H      E Q  E E Q  E   E E E E H     4x 
G||----------------|--------------|---------------|---------------|| 
D||o---------------|-7-7-4---7----|---------------|-7-7-4---7----o|| 
A||o-5-5--5-7-7--7-|-------7------|-5-5--5-7-7--7-|-------7------o|| 
E||----------------|--------------|---------------|---------------|| 

Lyrics 
Hoo, hah 
Hah, hoo 
Precious moments 

When will I see you again 
When will we share precious moments 
Will I have to wait forever 
Will I have to suffer 
And cry the whole night through 


When will I see you again 
When will our hearts beat together 
Are we in love or just friends 
Is this my beginning or is this the end 
When will I see you again 
When will I see you again 
When will I see you again 

Hah, hoo 
Precious moments 

Are we in love or just friends 
Is this my beginning or is this the end 
When will I see you again 
When will I see you again 
Sweet sweet love of mine 
Come, come 
Tell me, yeah 
My sweet lover, yeah 

************************************ 

| (n)  hold note 

************************************ 
		  

Full key step upFull key step up
Half key step upHalf key step up
Half key step downHalf key step down
Full key step downFull key step down
hide glossary

See also:

bass Deep Purple - Burn bass Deep Purple - Child in time bass Deep Purple - Smoke On The Water bass Deep Purple - Lady Double Dealer bass Deep Purple - Fire Ball bass Deep Purple - Smoke On The Water (ver. 3)
e-chords

Other versions:

bass Three Degrees - When Will I See You Again
auto scroll beats size up size down change color hide chords drawings
tab show chords e-chords YouTube Clip e-chords hide all tabs e-chords go to top tab

share