Deep Purple

Burn Ver.(2)

Deep Purple

bass Expert expert

by  PIPOCA(2)

save to print version add songbook text version e-mail correct tuner
chordsukulelecavacokeyboardtabbassdrumsharmonicaflute Guitar Pro
close

there isn't a video lesson for this song

chords

Burn Ver.(2)

	  		G||-------------------|------------------|------------------| 
D||-------------------|------------------|------------------| 
A||-------------------|------------------|------------------| 
E||--3----------------|------------------|------------------| 


                                                                  
------------------------|--------------------|------------------| 
------------------------|--------------------|------------------| 
------------10--10--10--|--10----------------|------------------| 
------------------------|--------------------|------------------| 


                                                                  
------------------|---------------------|-----------------------| 
------------------|---------------------|-----------------------| 
------------------|---------------------|-----------------------| 
------------------|------------0--1--2--|--3----3----3----3--3--| 


                                                                            
-----------------------|------------------------|-------------------------| 
-----------------------|------------------------|-------------------------| 
-----------------------|------------------------|-------------------------| 
--3----3--3--3----3----|--3--3--3--3--3----3----|--3--3--3--3----0--1--2--| 


                                                                           
------------------------|------------------------|-----------------------| 
------------------------|------------------------|-----------------------| 
------------------------|------------------------|-----------------------| 
--3----3--3--3----3--3--|--3----3--3--3--3--3----|--3----3----3----3--3--| 


                                                                            
------------------------|------------------------|------------------------| 
------------------------|-------5----5p-3--------|-------5----5p-3--------| 
------------------------|------------------5p-3--|------------------5p-3--| 
--3----3--3----0--1--2--|--3---------------------|--3---------------------| 


                                                                        
----------------------|------------------------|----------------------| 
---------5p---3-------|-------5----5p-3--3p-0--|---------5p---3-------| 
-----------------5----|------------------------|-----------------5----| 
--3-------------------|--3---------------------|--3-------------------| 


                                                                         
------------------------|-------------------|--------------------------| 
-------5----5p-3--------|-------------------|-------------10----------| 
------------------5p-3--|--3----------------|--3/-----10---------------| 
--3---------------------|-------------------|-----------------0--1--2--| 


                                                                         
-----------------------|-----------------------|-----------------------| 
-----------------------|-----------------------|-----------------------| 
-----------------------|-----------------------|-----------------------| 
--3----3----3----3--3--|--3----3--3--3----3----|--3----3----3----3--3--| 


                                                                          
------------------------|-----------------------|-----------------------| 
------------------------|---------5p---3--------|------5----5--5--------| 
------------------------|-----------------3-----|-----------------3h-5/-| 
--3----3--3----0--1--2--|--3-----------------3--|-----------------------| 


                                                                             
--------12------------------|-----------------------|----------------------| 
----------------12p-10------|-----------------------|---------5p---3-------| 
--10--------------------10--|------10--------------|-----------------3----| 
----------------------------|--------------0--1--2--|--3-------------------| 


                                                                    
------------------------|---------------------|-------------------| 
------------------------|---------------------|-------------------| 
------------------5--3--|--1-------------3----|--------------3/---| 
--3----3----3--5--------|---------1-----------|-------------------| 


                                                                 
--------------------|--------------------|---------------------| 
--------------------|--------------------|--5------7------8----| 
--15----------------|---------------5----|---------------------| 
--------------------|--3-----------------|---------------------| 


                                                                  
--------------------|--10------8------7---|--------------------| 
---------------8----|----------------------|--------------------| 
--6-----------------|----------------------|--3-----------------| 
--------------------|----------------------|---------------3----| 


                                                                    
---------------------|-------------------|------------------------| 
---------------------|-------------------|------------------------| 
--3------1------1----|-------------------|------------10--10--10--| 
---------------------|--3----------------|------------------------| 


                                                                   
--------------------|---------------------|----------------------| 
--------------------|---------------------|----------------------| 
--10----------------|---------------------|----------------------| 
--------------------|------------0--1--2--|--3----3----3----3----| 


                                                                          
-----------------------|-----------------------|------------------------| 
-----------------------|-----------------------|------------------------| 
-----------------------|-----------------------|------------------------| 
--3----3--3--3----3----|--3----3----3----3--3--|--3----3--3----0--1--2--| 


                                                                          
------------------------|------------------------|----------------------| 
-------5----5p-3--------|-------5----5p-3--------|---------5p---3-------| 
------------------5p-3--|------------------5p-3--|-----------------5----| 
--3---------------------|--3---------------------|--3-------------------| 


                                                                          
------------------------|----------------------|------------------------| 
-------5----5p-3--3p-0--|---------5p---3-------|-------5----5p-3--------| 
------------------------|-----------------5----|------------------5p-3--| 
--3---------------------|--3-------------------|--3---------------------| 


                                                                        
-------------------|--------------------------|-----------------------| 
-------------------|-------------10----------|-----------------------| 
--3----------------|--3/-----10---------------|-----------------------| 
-------------------|-----------------0--1--2--|--3----3----3----3--3--| 


                                                                          
-----------------------|-----------------------|------------------------| 
-----------------------|-----------------------|------------------------| 
-----------------------|-----------------------|------------------------| 
--3----3--3--3----3----|--3----3----3----3--3--|--3----3--3----0--1--2--| 


                                                                              
-----------------------|-----------------------|--------12------------------| 
---------5p---3--------|------5----5--5--------|----------------12p-10------| 
-----------------3-----|-----------------3h-5/-|--10--------------------10--| 
--3-----------------3--|-----------------------|----------------------------| 


                                                                         
-----------------------|----------------------|------------------------| 
-----------------------|---------5p---3-------|------------------------| 
------10--------------|-----------------3----|------------------5--3--| 
--------------0--1--2--|--3-------------------|--3----3----3--5--------| 


                                                                
---------------------|-------------------|--------------------| 
---------------------|-------------------|--------------------| 
--1-------------3----|--------------3/---|--15----------------| 
---------1-----------|-------------------|--------------------| 


                                                                 
--------------------|---------------------|--------------------| 
--------------------|--5------7------8----|---------------8----| 
---------------5----|---------------------|--6-----------------| 
--3-----------------|---------------------|--------------------| 


                                                                   
--10------8------7---|--------------------|---------------------| 
----------------------|--------------------|---------------------| 
----------------------|--3-----------------|--3------1------1----| 
----------------------|---------------3----|---------------------| 


                                                                   
-------------------|------------------------|--------------------| 
-------------------|------------------------|--------------------| 
-------------------|------------10--10--10--|--10----------------| 
--3----------------|------------------------|--------------------| 


                                                                      
---------------------|----------------------|-----------------------| 
---------------------|----------------------|-----------------------| 
---------------------|----------------------|-----------------------| 
------------0--1--2--|--3----3----3----3----|--3----3--3--3----3----| 


                                                                          
-----------------------|-------------------------|----------------------| 
-----------------------|-------------------------|----------------------| 
-----------------------|-------------------------|--5------5--5------5--| 
--3----3----3----3--3--|--3----3--3--3--0--1--2--|----------------------| 


                                                                     
----------------------|----------------------|---------------------| 
----------------------|----------------------|---------------------| 
--5------5--5------0--|--1------1--1------1--|--1------1--1--------| 
----------------------|----------------------|---------------------| 


                                                                   
---------------------|--------------------|----------------------| 
---------------------|--------------------|----------------------| 
--3------5--------8--|--------7-----------|--0------0--0------0--| 
---------------------|-----------------0--|----------------------| 


                                                                         
------------------------|----------------------|-----------------------| 
------------------------|----------------------|-----------------------| 
--0--0----0--0----x--0--|--1------1--1------1--|--1--1----1--1------0--| 
------------------------|----------------------|-----------------------| 


                                                                      
-----------------------|----------------------|---------------------| 
-----------------------|----------------------|---------------------| 
--5------5--5--5----5--|--5------5--5------5--|--5------5--------5--| 
-----------------------|----------------------|---------------------| 


                                                                 
--------------------|--------------------|---------------------| 
--------------------|--------------------|---------------------| 
--------5--------5--|--------5--------5--|--------5----5--5---| 
--------------------|--------------------|---------------------| 


                                                               
-------------------|---------------------|-------------------| 
-------------------|---------------------|-------------------| 
-------------------|---------------------|-------------------| 
--3----------------|------------3--3--3--|--3----------------| 


                                                                         
---------------------|-----------------------|-------------------------| 
---------------------|-----------------------|-------------------------| 
---------------------|-----------------------|-------------------------| 
------------0--1--2--|--3----3----3----3--3--|--3----3--3--3--0--1--2--| 


                                                                              
-------------------------|-------------------------|------------------------| 
-------------------------|-------------------------|-------5----3-----------| 
-------------------------|-------------------------|---------------5p-3-----| 
--3--3--3----3--3--3--3--|--3--3--3--3----0--1--2--|--3------------------3--| 


                                                                          
-----------------------|------------------------|-----------------------| 
--------5--5--5--3-----|-------5----5p-3--------|------5----5p-3--------| 
--------------------5--|------------------5-----|-----------------5--5--| 
-----------------------|--3------------------3--|-----------------------| 


                                                                         
------------------------|----------------------|-----------------------| 
-------5----5p-3--------|------5------3--------|-----------------------| 
------------------5-----|----------------5--4--|--3------3----3--3--3--| 
--3------------------3--|----------------------|-----------------------| 


                                                                            
------------------------|------------------------|------------------------| 
------------------------|-------5----5--3--------|-------5----5--5--3-----| 
--3----3----3/----------|------------------5-----|---------------------5--| 
---------------0--1--2--|--3------------------3--|----3-------------------| 


                                                                        
------------------------|----------------------|----------------------| 
-------5----5--3--------|------5----5--3-------|----------------------| 
------------------5-----|-----------------5----|--3------3--3------3--| 
--3------------------3--|----------------------|----------------------| 


                                                                        
----------------------|----------------------|------------------------| 
----------------------|----------------------|--5----5--5--5--3-------| 
--3------3--3--1------|----------------------|-------------------5----| 
----------------------|--3------3--3------3--|------------------------| 


                                                                       
----------------------|-----------------------|----------------------| 
----------------------|-----------------------|----------------------| 
--6------6--6---------|--6--6--6--5-----------|----------------------| 
-------------------6--|------------------6---|--3------3--3------3--| 


                                                                        
------------------------|----------------------|----------------------| 
------------------------|----------------------|----------------------| 
------------------3h-5--|--6------6--6------6--|--6------6--6------6--| 
--3------3--3--3--------|----------------------|----------------------| 


                                                                              
------------------------|-------------------------|-------------------------| 
------------------------|-------------------------|-------------------------| 
--5----5--5----5--5--5--|--3h-5--5--5----5--5--5--|--5----5--5--5--5--5--5--| 
------------------------|-------------------------|-------------------------| 


                                                                    
------------------------|---------------------|-------------------| 
------------------------|---------------------|-------------------| 
--3h-5--5--5--5--5/-----|--10------------8----|--6----------------| 
------------------------|---------------------|-------------------| 


                                                               
--------------------|-------------------|--------------------| 
--------------------|-------------------|--------------------| 
--8------------6----|--5----------------|--6------------5----| 
--------------------|-------------------|--------------------| 


                                                            
-------------------|-------------------|------------------| 
-------------------|-------------------|------------------| 
--3----------------|--5----------------|------------------| 
-------------------|-------------------|------------------| 


                                                                
---------------------|-------------------|--------------------| 
---------------------|-------------------|--------------------| 
--10------------8----|--6----------------|--8------------6----| 
---------------------|-------------------|--------------------| 


                                                              
-------------------|--------------------|-------------------| 
-------------------|--------------------|-------------------| 
--5----------------|--6------------5----|--3----------------| 
-------------------|--------------------|-------------------| 


                                                       
--------------------------|--------------------------| 
--------------------------|--------------------------| 
--5--5--5--5--5--5--5--5--|--5--5--5--5--5--5--5--5--| 
--------------------------|--------------------------| 


                                                      
--------------------------|-------------------------| 
--------------------------|-------------------------| 
--5--5--5--5--5--5--5--5--|--3h-5--5--5--5--5--5----| 
--------------------------|-------------------------| 


                                                               
------------------------------|------------------------------| 
------------------------------|------------------------------| 
----------------3--3--3--3----|----------------3--3--3--3----| 
--3--3--3--3------------------|--3--3--3--3------------------| 


                                                                           
--------------------------|--------------------------|-------------------| 
--------------------------|--------------------------|-------------------| 
--5--5--5--5--5--5--5--5--|--5--5--5--5--5--5--5--5--|-------------------| 
--------------------------|--------------------------|--3----------------| 


                                                                                 
------------------|------------------|---------------------|-------------------| 
------------------|------------------|---------------------|--5----------------| 
------------------|------------------|---------------------|-------------------| 
------------------|------------------|------------3--3--3--|-------------------| 


                                                             
------------------|------------------|---------------------| 
------------------|------------------|---------------------| 
------------------|------------------|---------------------| 
------------------|------------------|------------0--1--2--| 


                                                                          
-----------------------|------------------------|-----------------------| 
-----------------------|------------------------|-----------------------| 
-----------------------|------------------------|-----------------------| 
--3----3----3----3--3--|--3----3--3--3--3--3----|--3----3--3--3----3----| 


                                                                            
------------------------|------------------------|------------------------| 
------------------------|--------5--5-------5----|-------5-----------5----| 
------------------------|------------------------|------------------------| 
--3----3--3----0--1--2--|--3--3--------3---------|--3-------3--3--3-------| 


                                                                           
------------------------|-------------------------|----------------------| 
--------5---------5--5--|-------------------------|----------------------| 
------------------------|-------------------------|--5------5--5------5--| 
--3--3-------3----------|--3--3--3--3----0--1--2--|----------------------| 


                                                                     
----------------------|----------------------|---------------------| 
----------------------|----------------------|---------------------| 
--5------5--5------0--|--1------1--1------1--|--1------1--1--------| 
----------------------|----------------------|---------------------| 


                                                                   
---------------------|--------------------|----------------------| 
---------------------|--------------------|----------------------| 
--3------5--------8--|--------7-----------|--0------0--0------0--| 
---------------------|-----------------0--|----------------------| 


                                                                         
------------------------|----------------------|-----------------------| 
------------------------|----------------------|-----------------------| 
--0--0----0--0----x--0--|--1------1--1------1--|--1--1----1--1------0--| 
------------------------|----------------------|-----------------------| 


                                                                      
-----------------------|----------------------|---------------------| 
-----------------------|----------------------|---------------------| 
--5------5--5--5----5--|--5------5--5------5--|--5------5--------5--| 
-----------------------|----------------------|---------------------| 


                                                                 
--------------------|--------------------|---------------------| 
--------------------|--------------------|---------------------| 
--------5--------5--|--------5--------5--|--------5----5--5---| 
--------------------|--------------------|---------------------| 


                                                                              
-------------------------|------------------------|-------------------------| 
-------5--5--5p-3--------|-------5----5--5--3-----|-------5--5--5p-3--------| 
-------------------5-----|---------------------5--|-------------------5-----| 
--3-------------------3--|----3-------------------|--3-------------------3--| 


                                                                             
------------------------|-------------------------|------------------------| 
-------5----5--5--3-----|-------5--5--5p-3--------|-------5----5--5--3-----| 
---------------------5--|-------------------5-----|---------------------5--| 
----3-------------------|--3-------------------3--|----3-------------------| 


                                                                                 
------------------------|-----------------------|--------12----12p-10----------| 
-------5----5--3--------|-----------------------|----------------------12------| 
------------------5-----|-----------3h-5--3h-5/-|--10----------------------10--| 
--3------------------3--|----6------------------|------------------------------| 


                                                                   
--------12--12--12--12--10------|----------12----12p-10----------| 
----------------------------12--|------------------------12------| 
----10--------------------------|--10--10--------------------10--| 
--------------------------------|--------------------------------| 


                                                                              
--------12----------------|------------------------|------------------------| 
--------------------------|-------5----5p-3--------|-------5----5--5--3-----| 
----10--------------------|------------------5-----|---------------------5--| 
--------------11----10---|--3------------------3--|----3-------------------| 


                                                                            
--------------------------|------------------------|----------------------| 
-----------5--5--3--------|------5--5--5--5--------|----------------------| 
--------------------5-----|------------------3--3--|--5------5--5------5--| 
--3--3--3--------------3--|------------------------|----------------------| 


                                                                          
------------------------|-----------------------|-----------------5-----| 
------------------------|-----------------------|--------------7-----7--| 
--5--5----5--5--5----5--|--5------5--5--5----5--|--5--5-----------------| 
------------------------|-----------------------|-----------------------| 


                                                                         
----------------------|------------------------|-----------------------| 
----------------------|------------------------|-----------------------| 
--5------5--5------5--|--5--5----5--5--5----5--|--5------5--5--5----5--| 
----------------------|------------------------|-----------------------| 


                                                                     
-------------------------|---------------------|-------------------| 
-------------------------|---------------------|-------------------| 
--5--5----5--5--5/-10---|--10------------8----|--6----------------| 
-------------------------|---------------------|-------------------| 


                                                               
--------------------|-------------------|--------------------| 
--------------------|-------------------|--------------------| 
--8------------6----|--5----------------|--6------------5----| 
--------------------|-------------------|--------------------| 


                                                                  
-------------------|--------------------|-----------------------| 
-------------------|--------------------|-----------------------| 
--3----------------|--5--------------5--|--5--5----5--5--5------| 
-------------------|--------------------|-----------------------| 


                                                                
---------------------|-------------------|--------------------| 
---------------------|-------------------|--------------------| 
--10------------8----|--6----------------|--8------------6----| 
---------------------|-------------------|--------------------| 


                                                              
-------------------|--------------------|-------------------| 
-------------------|--------------------|-------------------| 
--5----------------|--6------------5----|--3----------------| 
-------------------|--------------------|-------------------| 


                                                                                 
--------------------------|-------------------------|--------------------------| 
--------------------------|-------------------------|--------------------------| 
--5--5--5--5--5--5--5--5--|--3h-5----3h-5--5--5--5--|--3h-5--5--5--5--5--5--5--| 
--------------------------|-------------------------|--------------------------| 


                                                           
--------------------------|------------------------------| 
--------------------------|------------------------------| 
--5--5--5--5--5--5--5--5--|----------------3--3--3--3----| 
--------------------------|--3--3--3--3------------------| 


                                                           
------------------------------|--------------------------| 
------------------------------|--------------------------| 
----------------3--3--3--3----|--5--5--5--5--5--5--5--5--| 
--3--3--3--3------------------|--------------------------| 


                                                                   
--------------------------|-------------------|------------------| 
--------------------------|-------------------|------------------| 
--5--5--5--5--5--5--5--5--|-------------------|------------------| 
--------------------------|--3----------------|------------------| 


                                                                  
------------------|---------------------|-----------------------| 
------------------|---------------------|-------5----5----5--5--| 
------------------|---------------------|-----------------------| 
------------------|------------3--6--3--|--3--------------------| 


                                                                             
-------------------------|-----------------------|-------------------------| 
--5----5--5--5--5--3-----|-----------------------|-------------------------| 
----------------------5--|-----------------------|-------------------------| 
-------------------------|--3----3----3----3--3--|--3--3--3--3----0--1--2--| 


                                                                          
------------------------|------------------------|----------------------| 
-------5----5p-3--------|-------5----5p-3--------|---------5p---3-------| 
------------------5p-3--|------------------5p-3--|-----------------5----| 
--3---------------------|--3---------------------|--3-------------------| 


                                                                          
------------------------|----------------------|------------------------| 
-------5----5p-3--3p-0--|---------5p---3-------|-------5----5p-3--------| 
------------------------|-----------------5----|------------------5p-3--| 
--3---------------------|--3-------------------|--3---------------------| 


                                                                        
-------------------|--------------------------|-----------------------| 
-------------------|-------------10----------|-----------------------| 
--3----------------|--3/-----10---------------|-----------------------| 
-------------------|-----------------0--1--2--|--3----3----3----3--3--| 


                                                                          
-----------------------|-----------------------|------------------------| 
-----------------------|-----------------------|------------------------| 
-----------------------|-----------------------|------------------------| 
--3----3--3--3----3----|--3----3----3----3--3--|--3----3--3----0--1--2--| 


                                                                              
-----------------------|-----------------------|--------12------------------| 
---------5p---3--------|------5----5--5--------|----------------12p-10------| 
-----------------3-----|-----------------3h-5/-|--10--------------------10--| 
--3-----------------3--|-----------------------|----------------------------| 


                                                                         
-----------------------|----------------------|------------------------| 
-----------------------|---------5p---3-------|------------------------| 
------10--------------|-----------------3----|------------------5--3--| 
--------------0--1--2--|--3-------------------|--3----3----3--5--------| 


                                                                
---------------------|-------------------|--------------------| 
---------------------|-------------------|--------------------| 
--1-------------3----|--------------3/---|--15----------------| 
---------1-----------|-------------------|--------------------| 


                                                                 
--------------------|---------------------|--------------------| 
--------------------|--5------7------8----|---------------8----| 
---------------5----|---------------------|--6-----------------| 
--3-----------------|---------------------|--------------------| 


                                                                   
--10------8------7---|--------------------|---------------------| 
----------------------|--------------------|---------------------| 
----------------------|--3-----------------|--3------1------1----| 
----------------------|---------------3----|---------------------| 


                                                                                 
-------------------|------------------|------------------|---------------------| 
-------------------|------------------|------------------|---------------------| 
-------------------|------------------|------------------|---------------------| 
--3----------------|------------------|------------------|------------0--1--2--| 


                                                                            
-----------------------|------------------------|-------------------------| 
-------5---------5--5--|-------5-----------5----|--------5--5-------------| 
-----------------------|------------------------|-------------------------| 
--3---------3----------|--3-------3--3--3-------|--3--3--------3--3----3--| 


                                                                    
------------------------|--------------------|--------------------| 
------------------------|--------------------|--------------------| 
------------------------|--------------------|--3------1----------| 
--3--3--3--3----3--3----|--3------1----------|--------------------| 


                                                                
--------------------|--------------------|--------------------| 
--------------------|--------------------|--------------------| 
--6------5----------|--6------5----------|--6------5----------| 
--------------------|--------------------|--------------------| 


                                                                
--------------------|-------------------|---------------------| 
--------------------|-------------------|---------------------| 
--6------5----------|-------------------|---------------------| 
--------------------|--3----------------|--3/-------10--------| 


                                                               
---------------------|-------------------|------------------|| 
---------------------|-------------------|------------------|| 
---------------------|-------------------|------------------|| 
--10-------------3--|--3---------------|------------------|| 

by: Pipoca(2) 
		  

auto scroll beats size up size down change color hide chords drawings
tab show chords e-chords YouTube Clip e-chords hide all tabs e-chords go to top tab

share