The Temptations

home > The Temptations

My Girl Bass Tab

The Temptations

Difficulty: BeginnerBeginner

by Acelot

tuner correct add songbook print version text version save to e-mail
chordsukulelecavacokeyboardtabbassdrumsharmonicsflute Guitar Pro
chords

My Girl

(Ronald White/ Smokey Robinson)

	  
Intro: 

G|-----------------| 
D|--5-------5------| 
A|-----3-3-----3-3-| 
E|-----------------| 

Verse: 

G|--------------------------------------------------| 
D|--------------------------------------------------| 
A|-3-x-3-3-----------------3-x-3-3----------------3-| 
E|---------x-3-1-x-1-1-x-3---------x-3-1-x-1-1--3---| 

Chorus: 

G|--------------| 
D|--------------| 
A|--3--5--------| 
E|--------1-2-3-| 

G|-------------| 
D|-------------| 
A|--3--5-------| 
E|--------1--3-| 

G|---------------------------| 
D|---------------------------| 
A|--3-x-3-3-x-3-3-x--3---3-5-| 
E|---------------------3-----| 
	  

there isn't a video lesson for this song

request
Search
auto scroll beats size up size down change color hide chords drawings
tab show chords e-chords YouTube Clip e-chords hide all tabs e-chords go to top tab