Temptations

My girl

Temptations

bass Expert expert

save to print version add songbook text version e-mail correct tuner
chordsukulelecavacokeyboardtabbassdrumsharmonicaflute Guitar Pro
close

there isn't a video lesson for this song

chords

My girl

Key:  C More
My girl Key GG
My girl Key G#G#
My girl Key AA
My girl Key A#A#(one step down)
My girl Key BB(half step down)
My girl Key CC(original key)
My girl Key C#C#(half step up)
My girl Key DD(one step up)
My girl Key D#D#
My girl Key EE
My girl Key FF
My girl Key F#F#
	  		Verse/ Chorus
G|------------------------------------------7--10---
D|-----------------7--10-----------7--10----------
A|----------7--10---------8---10------------------
E|--8---10-------------------------------------------

Lead Into Chorus
G|-------------------------------------------------
D--------------------------------------------------
A|---------------------------8----8----10-----10--
E|--8----8----10----10----------------------------
      I         Bet        You       Say

G|--------------------------------------------------------
D|--------------------------------------------------------
A|--------------------------12----10----8----10------
E|--8------8----10--------------------------------------
  what  can  make me  feel  this  way? 

		  

auto scroll beats size up size down change color hide chords drawings
tab show chords e-chords YouTube Clip e-chords hide all tabs e-chords go to top tab

share