UB40

home > UB40

12 Bar Bass Tab

UB40

Difficulty: BeginnerBeginner

by gustsilva

tuner correct add songbook print version text version save to e-mail
chordsukulelecavacokeyboardtabbassdrumsharmonicsflute Guitar Pro
chords

12 Bar

  		

Intro:(play twice) 
G:-------2----4----2-| 
D:--2--33---55---33--| 
A:33-----------------| 
E:-------------------| 

Verse: 
G:----------2--552---4--774---2-5---------------22--552---4-444--2-------| 
D:--2--55223-------55------533---5----22-55-2033--------5------23-2------| 
A:33------------------------------0233-----------------------------2---3-| 
E:------------------------------------------------------------------033--| 
 
	  

Search Paypal
auto scroll beats size up size down change color hide chords drawings
tab show chords e-chords YouTube Clip e-chords hide all tabs e-chords go to top tab