Frank Sinatra

home > Frank Sinatra

The Lady Is A Tramp Bass Tab

Frank Sinatra

Difficulty: nolevelnolevel

by hugo%5Frodrigues

tuner correct add songbook print version text version save to e-mail
chordsukulelecavacokeyboardtabbassdrumsharmonicsflute Guitar Pro
chords

The Lady Is A Tramp

  		
(Version with piano on intro from 'The Capitol Years') 

Intro 
G|-------------3---|-------------1---|-------------5---|-------------4---| 
D|---------3-------|-3-------3-------|-3-------5-------|---------4-------| 
A|-1---------------|-----4-----------|-----3-----------|-3---2-----------| 
E|-----------------|-----------------|-----------------|-----------------| 
    1 & 2 & 3 & 4 &   1 & 2 & 3 & 4 &   1 & 2 & 3 & 4 &   1 & 2 & 3 & 4 & 

G|-----------------|-2---3---2---3---|---------0-------|-----------------| 
D|---------2---3---|-----------------|-------------1---|-1-3-1-----3-----| 
A|-2---1-----------|-----------------|-2---3-----------|---------3-------| 
E|-----------------|-----------------|-----------------|-----------------| 
    1 & 2 & 3 & 4 &   1 & 2 & 3 & 4 &   1 & 2 & 3 & 4 &   1 & 2 & 3 & 4 & 
            She... 

G|-----------------|-2---3---2---3---|---------0-------|-----------------| 
D|---------2---3---|-----------------|-------------1---|-1-3-1-----3-----| 
A|-0---1-----------|-----------------|-2---3-----------|---------3-------| 
E|-----------------|-----------------|-----------------|-----------------| 
    1 & 2 & 3 & 4 &   1 & 2 & 3 & 4 &   1 & 2 & 3 & 4 &   1 & 2 & 3 & 4 & 
            She... 

G|---------2-3-3---|---------0-------|-3-2-1--------1--|-2---3-------0---| 
D|-----2-3------3--|-0---1-------1---|---------1-------|---------0-------| 
A|-1-------------1-|-----------------|-----------------|-----------------| 
E|-----------------|-----------------|-----------------|-----------------| 
    1 & 2 & 3 & 4 &   1 & 2 & 3 & 4 &   1 & 2 & 3 & 4 &   1 & 2 & 3 & 4 & 
                                                         that's... 

G|-----------------|-2---3---2---3---|---------0-2--3--|-3-------2---3---| 
D|-0---1-------3---|-----------------|-3---3-----------|-----3-----------| 
A|---------3-------|-----------------|---3---3---------|-----------------| 
E|-----------------|-----------------|-----------------|-----------------| 
    1 & 2 & 3 & 4 &   1 & 2 & 3 & 4 &   1 & 2 & 3 & 4 &   1 & 2 & 3 & 4 & 
                      tramp... 

G|-2---3---0-------|-0---------------|-2---5---4---3---|------2-3--2-3---| 
D|-------------1---|-----1---1---3---|-----------------|-5-3-------------| 
A|-----------------|-----------------|-----------------|-----------------| 
E|-----------------|-----------------|-----------------|-----------------| 
    1 & 2 & 3 & 4 &   1 & 2 & 3 & 4 &   1 & 2 & 3 & 4 &   1 & 2 & 3 & 4 & 
                     barons...                           Harlem... 

G|-0-------0-------|-----------------|-2---3---3-------|-2---3---3-------| 
D|-----1-------1---|-1---3---1---3---|-------------3---|-----------3-----| 
A|-----------------|-----------------|-----------------|-------------1---| 
E|-----------------|-----------------|-----------------|-----------------| 
    1 & 2 & 3 & 4 &   1 & 2 & 3 & 4 &   1 & 2 & 3 & 4 &   1 & 2 & 3 & 4 & 
                                                         dirt... 

G|-----------------|-3--2--1------1--|-----------------|-----------------| 
D|-0---1---0---1---|-----------1-----|---5-------5-----|----------3------| 
A|-----------------|-----------------|-5-------5-------|-5-3----3--------| 
E|-----------------|-----------------|-----------------|-----------------| 
    1 & 2 & 3 & 4 &   1 & 2 & 3 & 4 &   1 & 2 & 3 & 4 &   1 & 2 & 3 & 4 & 
                     girls... 

G|-2---3-----------|-2--3--5--7--10--|-8---7-----------|---------7-------| 
D|-------------5---|-----------------|---------10--8---|-7---10------10--| 
A|---------5-------|-----------------|-----------------|-----------------| 
E|-----------------|-----------------|-----------------|-----------------| 
    1 & 2 & 3 & 4 &   1 & 2 & 3 & 4 &   1 & 2 & 3 & 4 &   1 & 2 & 3 & 4 & 
  ..tramp                             free..            fresh.. 

G|-7---------------|-----------------|---------0---3---|-----2---5-------| 
D|-----8-----------|-5---------------|-----1--------3--|-5-----------3---| 
A|---------8---5---|-----5-------5---|-3-------------5-|-----------------| 
E|-----------------|---------6-------|-----------------|-----------------| 
    1 & 2 & 3 & 4 &   1 & 2 & 3 & 4 &   1 & 2 & 3 & 4 &   1 & 2 & 3 & 4 & 
                                              ..life 

G|-----------------|-----------------|-----------------|-2---3-----------| 
D|-3---------5-----|-----------3-----|-----2-3---------|---------3-------| 
A|-----------------|-3---------------|-1---------------|-------------1---| 
E|-----------------|-----------------|-----------------|-----------------| 
    1 & 2 & 3 & 4 &   1 & 2 & 3 & 4 &   1 & 2 & 3 & 4 &   1 & 2 & 3 & 4 & 
  She's broke..          ..oke 
G|-------------5---|-----------------|-7---------------|-----------------| 
D|---------5-------|-1---0-------7---|-------------5---|-----5-----------| 
A|-2---3-----------|-----------------|---------5-------|-5-----------5---| 
E|-----------------|-----------------|-----------------|-----------------| 
    1 & 2 & 3 & 4 &   1 & 2 & 3 & 4 &   1 & 2 & 3 & 4 &   1 & 2 & 3 & 4 & 
        it'..             damp.. 

G|-----------------|-2---3---2---0---|-----------------| 
D|-------------3---|-----------------|-3---1-0-----3---|(Key change from Bb 
A|-3-------3-------|-----------------|---------3-------|to B) 
E|-----------------|-----------------|-----------------| 
    1 & 2 & 3 & 4 &   1 & 2 & 3 & 4 &   1 & 2 & 3 & 4 &   
                      tramp... 

G|-----------------|-1-------1-------|-----------------|-----3---8---6---| 
D|---------1---4---|-----1-------1---|-----1---2---3---|-4---------------| 
A|-2---4-----------|-----------------|-4---------------|-----------------| 
E|-----------------|-----------------|-----------------|-----------------| 
    1 & 2 & 3 & 4 &   1 & 2 & 3 & 4 &   1 & 2 & 3 & 4 &   1 & 2 & 3 & 4 & 
   She..                               dinner.. 
G|-4---6---8----4--|-----------------|---------1-------|-----3---8---6---| 
D|-----------------|(6)6-------------|-----2-------2---|-4---------------| 
A|-----------------|-----6-------6---|-4---------------|-----------------| 
E|-----------------|---------7-------|-----------------|-----------------| 
    1 & 2 & 3 & 4 &   1 & 2 & 3 & 4 &   1 & 2 & 3 & 4 &   1 & 2 & 3 & 4 & 

                     theatre..                           late.. 
G|-8---6---4---3---|-----------------|---------1--4-2--|-----------------| 
D|-----------------|-4---1-----------|-1-2-----------2-|-4---1-----------| 
A|-----------------|---------4---2---|----------------4|---------4-------| 
E|-----------------|-----------------|-----------------|-------------2---| 
    1 & 2 & 3 & 4 &   1 & 2 & 3 & 4 &   1 & 2 & 3 & 4 &   1 & 2 & 3 & 4 & 

                     bother..                       hate.. 
G|-----------------|-----------------|-----------------|-----------------| 
D|-1-----------1---|-2-------4-x-4---|---------1---4---|-4-x-44-x-4-x-4-x| 
A|-----4---2-------|-----4-----------|-2---4-----------|-----------------| 
E|-----------------|-----------------|-----------------|-----------------| 
    1 & 2 & 3 & 4 &   1 & 2 & 3 & 4 &   1 & 2 & 3 & 4 &   1 & 2 & 3 & 4 & 
                                       tramp.. 


************************************ 

| (n)  Ghost note 
| x    Dead note 

************************************ 
	  

Full key step upFull key step up
Half key step upHalf key step up
Half key step downHalf key step down
Full key step downFull key step down
Search Paypal
auto scroll beats size up size down change color hide chords drawings
tab show chords e-chords YouTube Clip e-chords hide all tabs e-chords go to top tab