The Cars

Sad Song

The Cars

bass

by  GUSTSILVA

save to print version add songbook text version e-mail correct tuner
chordsukulelecavacokeyboardtabbassdrumsharmonicaflute Guitar Pro
close

there isn't a video lesson for this song

chords

Sad Song

	  		
verse 1 0:11 
Too many screamers... 
G|------------------|------------------|------------------|-------------------| 
D|------------------|------------------|------------------|-------------------| 
A|------------------|------------------|------------------|-------------------| 
E|-5-5-5-5--5-5-5-5-|-5-5-5-5--5-5-5-5-|-5-5-5-5--5-5-5-5-|-5-5-5-5--5-7-8-10-| 

G|--------------------------|--------------------------| 
D|--------------------------|--------------------------| 
A|--------------------------|--------------------------| 
E|-12-12-12-12--12-12-12-12-|-12-12-12-12--12-12-12-12-| 

Too many eyes... 
G|------------------|------------------|------------------|-------------------| 
D|------------------|------------------|------------------|-------------------| 
A|------------------|------------------|------------------|-------------------| 
E|-5-5-5-5--5-5-5-5-|-5-5-5-5--5-5-5-5-|-5-5-5-5--5-5-5-5-|-5-5-5-5--5-7-8-10-| 

G|--------------------------|--------------------------| 
D|--------------------------|--------------------------| 
A|--------------------------|--------------------------| 
E|-12-12-12-12--12-12-12-12-|-12-12-12-12--12-12-12-12-| x2 


Chorus 0:36 
It's just a sad song... 
G|------------------|------------------|------------------|------------------| 
D|------------------|------------------|------------------|------------------| 
A|-3-3-3-3--3-3-3-3-|-5-5-5-5--5-5-5-5-|-7-7-7-7--7-7-7-7-|-7-7-7-7--7-7-7-7-| x2 
E|------------------|------------------|------------------|------------------| 

G|------------------|------------------| 
D|------------------|------------------| 
A|-7-7-7-7--7-7-7-7-|-7-7-7-7--7-7-7-7-| 
E|------------------|------------------| 


verse 2 0:55 
Too many thoughts.... 
G|------------------|------------------|------------------|-------------------| 
D|------------------|------------------|------------------|-------------------| 
A|------------------|------------------|------------------|-------------------| 
E|-5-5-5-5--5-5-5-5-|-5-5-5-5--5-5-5-5-|-5-5-5-5--5-5-5-5-|-5-5-5-5--5-7-8-10-| 

G|--------------------------|--------------------------| 
D|--------------------------|--------------------------| 
A|--------------------------|--------------------------| 
E|-12-12-12-12--12-12-12-12-|-12-12-12-12--12-12-12-12-|  

Too many clouds... 
G|------------------|------------------|------------------|-------------------| 
D|------------------|------------------|------------------|-------------------| 
A|------------------|------------------|------------------|-------------------| 
E|-5-5-5-5--5-5-5-5-|-5-5-5-5--5-5-5-5-|-5-5-5-5--5-5-5-5-|-5-5-5-5--5-7-8-10-| 

G|--------------------------|--------------------------| 
D|--------------------------|--------------------------| 
A|--------------------------|--------------------------| 
E|-12-12-12-12--12-12-12-12-|-12-12-12-12--12-12-12-12-| x2 


Chorus 1:20 
It's just a sad song... 
G|------------------|------------------|------------------|------------------| 
D|------------------|------------------|------------------|------------------| 
A|-3-3-3-3--3-3-3-3-|-5-5-5-5--5-5-5-5-|-7-7-7-7--7-7-7-7-|-7-7-7-7--7-7-7-7-| x4 
E|------------------|------------------|------------------|------------------| 


Bridge 1:49 
G|--------------------------|--------------------------| 
D|--------------------------|--------------------------| 
A|--------------------------|--------------------------| 
E|-12-12-12-12--12-12-12-12-|-12-12-12-12--12-12-12-12-| x1 PM 

G|--------------------------|--------------------------| 
D|--------------------------|--------------------------| 
A|--------------------------|--------------------------| 
E|-12-12-12-12--12-12-12-12-|-12-12-12-12--12-12-12-12-| x2 


verse 3 2:00 
Too many heartaches.... 
G|------------------|------------------|------------------|--------------------| 
D|------------------|------------------|------------------|--------------------| 
A|------------------|------------------|------------------|--------------------| 
E|-5-5-5-5--5-5-5-5-|-5-5-5-5--5-5-5-5-|-5-5-5-5--5-5-5-5-|-5-5-5-5--5-8-10-10-| 

G|--------------------------|--------------------------| 
D|--------------------------|--------------------------| 
A|--------------------------|--------------------------| 
E|-12-12-12-12--12-12-12-12-|-12-12-12-12--12-12-12-12-|  

Too many fires... 
G|------------------|------------------|------------------|--------------------| 
D|------------------|------------------|------------------|--------------------| 
A|------------------|------------------|------------------|--------------------| 
E|-5-5-5-5--5-5-5-5-|-5-5-5-5--5-5-5-5-|-5-5-5-5--5-5-5-5-|-5-5-5-5--x-8-10-10-| 

G|--------------------------|--------------------------| 
D|--------------------------|--------------------------| 
A|--------------------------|--------------------------| 
E|-12-12-12-12--12-12-12-12-|-12-12-12-12--12-12-12-12-| x2 

Chorus 2:25 
It's just a sad song... 
G|------------------|------------------|------------------|------------------| 
D|------------------|------------------|------------------|------------------| 
A|-3-3-3-3--3-3-3-3-|-5-5-5-5--5-5-5-5-|-7-7-7-7--7-7-7-7-|-7-7-7-7--7-7-7-7-| x8 
E|------------------|------------------|------------------|------------------| 

Outro 3:23 
G|------------------|------------------|------------------|------------------| 
D|------------------|------------------|------------------|------------------| 
A|------------------|------------------|------------------|------------------| 
E|-0----------------|------------------|-0----------------|------------------| 


************************************ 

| x   Dead note 
| PM  Palm mute 

************************************ 
		  

See also:

bass Simon & Garfunkel - The sounds of silence bass Live - Dolphin“s Cry bass Guns N' Roses - Sweet Child O' Mine bass Guns N' Roses - Civil War bass 4 Non Blondes - What`s up (ver. 1) bass Guns N' Roses - Sweet Child O' Mine (ver. 3)
e-chords

Other versions:

bass The Cars - Sad Song
auto scroll beats size up size down change color hide chords drawings
tab show chords e-chords YouTube Clip e-chords hide all tabs e-chords go to top tab

share