Stuart Hamm

Country Music

Stuart Hamm

bass

by  TRAKINAS_

save to print version add songbook text version e-mail correct tuner
chordsukulelecavacokeyboardtabbassdrumsharmonicaflute Guitar Pro
close

there isn't a video lesson for this song

chords

Country Music

	  		Eu aconselho que escultem primeiro beim essa musica certo... 
pq tem a hora la dos slaps que querbra agente... 
 
 Intro 
  Tempo time>>H=144 
2/2 
     Gtr I 
  Q  Q  Q  Q      Q   Q  Q   Q    Q   Q  Q   Q 
|-------------||-----17-----17--|----17-----17--| 
|-------------||o----17-----17--|----17-----17--| 
|-------0--2--||o-3-------------|-3-------------| 
|----3--------||---------3------|--------3------| 
 
 
  Q   Q  Q   Q    Q   E  E Q   Q 
|----17-----17--|----17-17----17-----|| 
|----17-----17--|----17-17----17----o|| 
|-3-------------|-3-----------------o|| 
|--------3------|----------3---------|| 
 
 
   Chorus 
    C 
    Q   Q  Q   Q    Q   Q  Q   Q    Q   Q  Q   Q    Q   Q  Q   Q 
||-----17-----17--|----17-----17--|----17-----17--|----17-----17---| 
||o----17-----17--|----17-----17--|----17-----17--|----17-----17---| 
||o-3-------------|-3-------------|-3-------------|-3--------------| 
||---------3------|--------3------|--------3------|--------3-------| 
 
 
  A-                              C 
  Q   Q  Q   Q    Q   Q  Q   Q    Q   Q  Q   Q    Q   Q  Q   Q 
|----17-----17--|----17-----17--|----17-----17--|----17-----17--| 
|----19-----19--|----19-----19--|----17-----17--|----17-----17--| 
|--------7------|--------7------|-3-------------|-3-------------| 
|-5-------------|-5-------------|--------3------|--------3------| 
 
 
  A-                              C 
  Q   Q  Q   Q    Q   Q  Q   Q    Q   Q  Q   Q    Q   Q  Q   Q 
|----17-----17--|----17-----17--|----17-----17--|----17-----17--| 
|----19-----19--|----19-----19--|----17-----17--|----17-----17--| 
|--------7------|--------7------|-3-------------|-3------5------| 
|-5-------------|-5-------------|--------3------|---------------| 
 
 
  G                                             C 
  Q   Q  Q   Q    Q   Q  Q   Q    Q  Q  Q  Q    Q  Q  Q  Q 
|----16-----16--|----16-----16--|-------------|--------------|| 
|----17-----17--|----17-----17--|-------------|-------------o|| 
|--------5------|--------5------|-------0--2--|-3-----0--2--o|| 
|-3-------------|-3-------------|-3--3--------|----3---------|| 
 
 
   Slap Chorus 
    $ 
    C 
    Gtr II 
    E E E E E E E E   E E E E E E E E   E E E  E E E Q    Q  Q  Q  Q 
||--------0-------0-|-------0-------0-|--------0---0----|--------------| 
||o-4h5-5---4h5-5---|-4h5-5---4h5-5---|-4h5-5----5---2--|--------------| 
||o-3---------------|-3---------------|-3---------------|-3------------| 
||----------3-------|---------3-------|-----------------|----0--3--4---| 
    Q   Q   Q   Q     Q   Q   Q   Q     Q   H. 
 
 
  A-                          C 
  Q  Q  Q  Q    Q  Q  Q  Q    E E E E E E Q    Q  Q  Q  Q 
|----2--------|-2-----------|-------0---0----|-------------| 
|-------2-----|----2--------|-4h5-5---5---2--|-------------| 
|-0--------3--|-------3--0--|----------------|-3-----------| 
|-------------|-------------|----------------|----0--3--4--| 
 
 
  A-                          C 
  Q  Q  Q  Q    Q  Q  Q  Q    E E E E E E Q    Q  Q  Q  Q 
|----2--------|-2-----------|-------0---0----|-------------| 
|-------2-----|----2--------|-4h5-5---5---2--|-------------| 
|-0--------3--|-------3--0--|----------------|-3-----------| 
|-------------|-------------|----------------|----0--1--2--| 
 
 
  G 
  Q  E E E E E E   E E E E E E E E 
|----------0-----|-------0-------0-| 
|----4h5-5---4h5-|-4h5-5---4h5-5---| 
|----------------|-----------------| 
|-3--------------|-----------------| 
 
 
                  1.               2.,D.S. 
                                   To Coda 
                   C               C 
  E E E E E E Q    Q  Q  Q  Q      H    H 
|-------0---0----|--------------||-----------|| 
|-4h5-5---5---2--|-------------o||-----------|| 
|----------------|-3-----0--2--o||-3---------|| 
|----------------|----3---------||-----------|| 
 
 
Fingerstyle #1 
     C 
     Gtr I 
   a  Q   Q   E  E  Q     a  Q   Q   E  E  Q 
|----12--12--12-12-----|----12--12--12-12-----| 
|-12h14--14--14p12-----|-12h14--14--14p12-----| 
|------------------15--|------------------15--| 
|----------------------|----------------------| 
 
 
   a  Q   Q   E  E  Q     Q   Q   Q   Q 
|----12--12--12-12-----|-12------12-------| 
|-12h14--14--14p12-----|-12------12-------| 
|------------------15--|-----15------15---| 
|----------------------|------------------| 
 
 
     A- 
   a  Q   Q   E  E  Q     a  Q   Q   E  E  Q 
|----17--17--17-17-----|----17--17--17-17-----| 
|-17h19--19--19p17-----|-17h19--19--19p17-----| 
|------------------19--|------------------19--| 
|----------------------|----------------------| 
 
 
     C 
   a  Q   Q   E  E  Q     Q   Q   Q   Q 
|----12--12--12-12-----|-12------12-------| 
|-12h14--14--14p12-----|-12------12-------| 
|------------------15--|-----15------15---| 
|----------------------|------------------| 
 
 
     A- 
   a  Q   Q   E  E  Q     a  Q   Q   E  E  Q 
|----17--17--17-17-----|----17--17--17-17-----| 
|-17h19--19--19p17-----|-17h19--19--19p17-----| 
|------------------19--|------------------19--| 
|----------------------|----------------------| 
 
 
     C 
   a  Q   Q   E  E  Q     Q   Q   Q   Q 
|----12--12--12-12-----|-12------12-------| 
|-12h14--14--14p12-----|-12------12-------| 
|------------------15--|-----15------15---| 
|----------------------|------------------| 
 
 
     G 
   a  Q.    a  E  +Q    Q     a  Q.    a  E  +Q    Q 
|----12--------------------|----12--------------------| 
|-12h14-------12-(12)------|-12h14-------12-(12)------| 
|----------12h14-(14)------|----------12h14-(14)------| 
|----------------------15--|----------------------15--| 
 
 
                             C 
   a  Q.    a  E  +Q    Q     H    Q  E E 
|----12--------------------|--------------|| 
|-12h14-------12-(12)------|-14-----------|| 
|----------12h14-(14)------|-15-------2h3-|| 
|----------------------15--|--------------|| 
 
 
Fingerstyle #2 
  C 
  E E  E E  Q  E E   E E  E E  Q  E E   E E  E E  Q   Q     Q  Q  E E E E 
|---0----9-12------|---0----9-12------|---0----9-12--11--|-10--9--7-7-8-7-| 
|-2---10-----------|-2---10-----------|-2---10-----------|----------------| 
|--------------2h3-|--------------2h3-|------------------|----------------| 
|------------------|------------------|------------------|----------------| 
 
 
  A-                             C 
  Q  Q  E E E E   Q  Q  Q  E E   +E  E E E  E E E E    E  E  E  E  E  E  E   
E 
|-9--8--7-8-7-6-|-5--4--2--2---|----------------7---|-------12----------------| 
|---------------|--------------|-------7------7---9-|-10-12----14-15----------| 
|---------------|--------------|-----7---9-10-------|----------------12-14-15-| 
|---------------|------------8-|-(8)----------------|-------------------------| 
 
 
  A- 
   +E   E  E E  Q   E  E     H     Q.    E 
|------------------12----|-/14----12-------| 
|---------12-x-14-----14-|--------------10-| 
|-(15)-15----------------|-----------------| 
|------------------------|-----------------| 
 
 
  C 
  E E  E  E  E  E E E    E  E  E  E E E  E  E 
|-8-9-10-11-12----8-9-|-10-11-12----8-9-10-11-| 
|--------------10-----|----------10-----------| 
|---------------------|-----------------------| 
|---------------------|-----------------------| 
 
 
  G                                                          C 
   E E  E E E E  E E    E E E E E E  E E   E E E E E E E E   H     H 
|-12-0-10-0-9-0-12-0-|-10-0-9-0-7-0-10-0-|-9-0-7-0-4-0-7-0-|-5/---------|| 
|--------------------|-------------------|-----------------|------------|| 
|--------------------|-------------------|-----------------|------------|| 
|--------------------|-------------------|-----------------|------------|| 
 
 
Slap Solo 
  C 
  Gtr III 
                                      |-3--| 
   E E a E E E E  E E   E  E E E  E E E  E E 
|-10---8h9------------|----------------------| 
|--------------8h10---|--------8h10----------| 
|---------------------|-8h10-x--------8h10p8-| 
|----x-----x--------x-|-------------x--------| 
 
 
  Q  Q   E E  Q    E  E E E  E E Q 
|----------------|------------------| 
|-8--8-----------|------------------| 
|-------10p8-----|-8-10-x-----------| 
|------------10--|--------8h10-x-6--| 
 
 
  A-                                  C 
                                                   |-3--| 
  Q  E E E E E E   E E E E E E  E E   E E E E  E E E  E E   Q  Q   E E  Q 
|----5-----5-----|-5-----5-----10---|-8h9-----------------|-----------------| 
|----------------|------------------|-------8h10----------|-8--8------------| 
|----------------|------------------|-----x--------8h10p8-|-------10p8------| 
|-5----5-5---5-5-|---5-5---5-5----x-|------------x--------|------------10---| 
 
 
  A-                                 C 
  E E E E E E E E   E E E E E E Q    Q  E a E +E  E Q    Q  Q  E E Q 
|-----------------|----------------|-------------------|-5--5----------| 
|-5h7---------5-x-|-5h7------------|--------------5-7--|-------7p5-----| 
|-----x-5h7-x-----|-----x-5h7-x-5--|-3--3-5h7-(7)------|-----------7---| 
|-----------------|----------------|-------------------|---------------| 
 
 
  G                                                       C 
  E E E E E E E E    E  E  E E E E E E   E E E E E E Q    H    H 
|-------0---------|----------0-------0-|-------0---0----|-----------|| 
|-4h5-5---8h9-9-0-|-11h12-12---8h9-9---|-4h5-5---5---2--|-----------|| 
|-----------------|--------------------|----------------|-3---------|| 
|-----------------|--------------------|----------------|-----------|| 
 
 
Slap Solo #2 
  C 
                                                  |-3-| 
  Q  E E E E E E    E E E E E E  Q    E E E E E E E E E   Q  Q  E E Q 
|----9-----7-----|------------------|-----5-------------|---------------| 
|----------------|-10-----7---------|-5h7---7p5---------|-5--5----------| 
|----------------|--------------10--|-----------7-5h7p5-|-------7p5-----| 
|-8----8-8---8-8-|----8-8---8-8-----|-------------------|-----------8---| 
 
 
  A- 
     |-3-|    |-3-|      |--3--|      |--3--| 
  Q  E E E Q  E E E   Q  E  E  E  Q   E  E  E 
|-------------------|-------------------------| 
|--------7--------9-|---------10-----------12-| 
|------7--------9---|------10-----------12----| 
|-5--5-----7--7-----|-8--8-------10--10-------| 
 
 
  C 
  Q.     E E a Q  E   E  E E  E E  E E  E 
|------/10---8h9--x-|----------------------| 
|-------------------|-8h10------8h10-------| 
|----------x--------|------8h10------8h10--| 
|-8-----------------|----------------------| 
 
 
  A-                                 C 
                                     Gtr I 
  E E E E E E E E   E E E E E E Q    Q  Q   Q   Q     Q   Q   H 
|-----------------|----------------|----9------12--|-----17--21\----| 
|-5h7-x-----x-5-x-|-5h7-x-----x----|---------------|----------------| 
|-------5h7-------|-------5h7---5--|---------------|----------------| 
|-----------------|----------------|-8-----12------|-15------20\----| 
                                     H      H         H       H 
 
 
  G                                                      C 
  Gtr III 
     |-3-| 
  Q  E E E E E E E   E E E E E E E E   E E E E E E E E   H    H 
|------------5---3h|=4-------5-x-3h4-|-----------------|-----------|| 
|--------5---------|---x-3h5---------|-3h5-----3h5-----|-----------|| 
|------5-----------|-----------------|-----3h5-----3h5-|-3---------|| 
|-3--3-----3---x---|-----------------|-----------------|-----------|| 
 
 
Tap Chorus #1 
  C 
  Gtr I 
         T     T     T       T     T     T     T 
   E  E  E  E  E  E  E  E    E  E  E  E  E  E  E  E 
|----------------17-19-17-|-------19-17-------19-17-| 
|----------17-19----------|-19-17-------19-17-------| 
|-15h17-19----------------|-------------------------| 
|-------------------------|-------------------------| 
 
 
   T     T     T     T       T     T     T     T 
   E  E  E  E  E  E  E  E    E  E  E  E  E  E  Q 
|-20-17-19-17-------19-17-|-21-17-19-17-------19--| 
|-------------19-17-------|-------------19-17-----| 
|-------------------------|-----------------------| 
|-------------------------|-----------------------| 
 
 
  A- 
   T        T        T        T          T        T        T        T 
   |--3--|  |--3--|  |--3--|  |--3--|    |--3--|  |--3--|  |--3--|  |--3--| 
   E  E  E  E  E  E  E  E  E  E  E  E    E  E  E  E  E  E  E  E  E  E  E  E 
|-19-14h17-19-17p14-19-14h17-19-17p14-|-19-14h17-19-17p14-19-14h17-19-17p14-| 
|-------------------------------------|-------------------------------------| 
|-------------------------------------|-------------------------------------| 
|-------------------------------------|-------------------------------------| 
 
 
  C 
   T     T     T     T       T     T 
   E  E  E  E  E  E  E  E    E  E  E  E  H 
|-19-17-------------------|-------------------| 
|-------19-17-------19-17-|-19-17-------------| 
|-------------19-17-------|-------19-17s15----| 
|-------------------------|-------------------| 
 
 
  A- 
         T  T        T  T          T  T        T  T 
   E  E  E  E  E  E  E  E    E  E  E  E  E  E  E  E 
|-------------------------|-------------------------| 
|----14----19----14----19-|----14----19----14----19-| 
|-12----19----12----19----|-12----19----12----19----| 
|-------------------------|-------------------------| 
 
 
  C 
         T  T     T     T    T           T 
   E  E  E  E  E  E  E  E    E  E  E  E  H 
|-------------17-21-17----|-----------------| 
|----17----22----------22-|----17----17-22--| 
|-15----22----------------|-22----15--------| 
|-------------------------|-----------------| 
 
 
  G 
   T            T              T            T 
   |-3-| |-3-|  |-3-| |-3-|    |-3-| |-3-|  |-3-| |-3-| 
   E E E E E E  E E E E E E    E E E E E E  E E E E E E 
|-12-7p4p0h4h7-12-7p4p0h4h7-|-12-7p4p0h4h7-12-7p4p0h4h7-| 
|---------------------------|---------------------------| 
|---------------------------|---------------------------| 
|---------------------------|---------------------------| 
 
 
                    C 
   T 
   |-3-| 
   E E E Q  Q  Q     H    H 
|-12-7p4-0--8s=9--|-17---------|| 
|-----------------|------------|| 
|-----------------|------------|| 
|-----------------|------------|| 
 
 
Tap Chorus #2 
  C 
         T  T     T     T  T 
   |-----5-----|  |-----5-----|    |-----5-----|  |-----5-----| 
   E  E  E  E  E  E  E  E  E  E    E  E  E  E  E  E  E  E  E  E 
|-------------17-21-17----------|-------------17-21-17----------| 
|----17----22----------22----17-|----17----22----------22----17-| 
|-15----22----------------22----|-15----22----------------22----| 
|-------------------------------|-------------------------------| 
 
 
   |-----5-----|  |-----5-----|    |-----5-----|  |-----5-----| 
   E  E  E  E  E  E  E  E  E  E    E  E  E  E  E  E  E  E  E  E 
|-------------17-21-17----------|-------------17-21-17-----------| 
|----17----22----------22----17-|----17----22----------22----17--| 
|-15----22----------------22----|-15----22----------------22-----| 
|-------------------------------|--------------------------------| 
 
 
  A- 
   |-----5-----|  |-----5-----|    |-----5-----|  |-----5-----| 
   E  E  E  E  E  E  E  E  E  E    E  E  E  E  E  E  E  E  E  E 
|-------------14-17-14----------|-------------14-17-14----------| 
|----14----19----------19----14-|----14----19----------19----14-| 
|-12----19----------------19----|-12----19----------------19----| 
|-------------------------------|-------------------------------| 
 
 
  C 
   |-----5-----|  |-----5-----|    |-----5-----|  |-----5-----| 
   E  E  E  E  E  E  E  E  E  E    E  E  E  E  E  E  E  E  E  E 
|-------------17-21-17----------|-------------17-21-17-----------| 
|----17----22----------22----17-|----17----22----------22----17--| 
|-15----22----------------22----|-15----22----------------22-----| 
|-------------------------------|--------------------------------| 
 
 
  A- 
   |-----5-----|  |-----5-----|    |-----5-----|  |-----5-----| 
   E  E  E  E  E  E  E  E  E  E    E  E  E  E  E  E  E  E  E  E 
|-------------14-17-14----------|-------------14-17-14----------| 
|----14----19----------19----14-|----14----19----------19----14-| 
|-12----19----------------19----|-12----19----------------19----| 
|-------------------------------|-------------------------------| 
 
 
  C 
   |-----5-----|  |-----5-----|    |-----5-----|  |-----5-----| 
   E  E  E  E  E  E  E  E  E  E    E  E  E  E  E  E  E  E  E  E 
|-------------17-21-17----------|-------------17-21-17-----------| 
|----17----22----------22----17-|----17----22----------22----17--| 
|-15----22----------------22----|-15----22----------------22-----| 
|-------------------------------|--------------------------------| 
 
 
  G 
   |-----5-----|  |-----5-----|    |-----5-----|  |-----5-----| 
   E  E  E  E  E  E  E  E  E  E    E  E  E  E  E  E  E  E  E  E 
|-------------------------------|-------------------------------| 
|-------------17-21-17----------|-------------17-21-17----------| 
|----17----22----------22----17-|----17----22----------22----17-| 
|-15----22----------------22----|-15----22----------------22----| 
 
 
                                  C 
   |-----5-----|  |-----5-----| 
   E  E  E  E  E  E  E  E  E  E    H    H 
|-------------------------------|------------|| 
|-------------17-21-17----------|------------|| 
|----17----22----------22----17-|------------|| 
|-15----22----------------22----|-20---------|| 
 
 
Fingerstyle/Tap 
  C 
  |--3--|  |--3--| |--3--|  |--3--|   |--3--|  |--3--| |--3--|  |--3--| 
  E  E  E  E  E  E E  E  E  E  E  E   E  E  E  E  E  E E  E  E  E  E  E 
|---17-------17------17-------17----|---17-------17------17-------17----| 
|------17-------17------17-------17-|------17-------17------17-------17-| 
|------------------7----------------|------------------7----------------| 
|-8-------10---------------10-------|-8-------10---------------10-------| 
  Q        Q       Q        Q         Q        Q       Q        Q 
 
 
  |--3--|  |--3--| |--3--|  |--3--|   |--3--| |--3--| |--3--| |--3--| 
  E  E  E  E  E  E E  E  E  E  E  E   E  E  E E  E  E E  E  E E  E  E 
|---17-------17------17-------17----|---17------17------17------17-------| 
|------17-------17------17-------17-|------17------17------17------17----| 
|------------------7----------------|------------------------------------| 
|-8-------10---------------10-------|-8-------8-------7-------6----------| 
  Q        Q       Q        Q         Q       Q       Q       Q 
 
 
  A- 
  |--3--| |--3--| |--3--| |--3--|   |--3--| |--3--| |--3--| |--3--| 
  E  E  E E  E  E E  E  E E  E  E   E  E  E E  E  E E  E  E E  E  E 
|---14------14------14------14----|---14------14------14------14----| 
|------14------14------14------14-|------14------14------14------14-| 
|---------------------------------|---------------------------------| 
|-5-------7-------8-------7-------|-5-------7-------8-------5-------| 
  Q       Q       Q       Q         Q       Q       Q       Q 
 
 
  C 
  |--3--|  |--3--| |--3--|  |--3--|   |--3--| |--3--| |--3--| |--3--| 
  E  E  E  E  E  E E  E  E  E  E  E   E  E  E E  E  E E  E  E E  E  E 
|---17-------17------17-------17----|---17------17------17------17-------| 
|------17-------17------17-------17-|------17------17------17------17----| 
|------------------7----------------|------------------------------------| 
|-8-------10---------------10-------|-8-------8-------7-------6----------| 
  Q        Q       Q        Q         Q       Q       Q       Q 
 
 
  A- 
  |--3--| |--3--| |--3--| |--3--|   |--3--| |--3--| |--3--| |--3--| 
  E  E  E E  E  E E  E  E E  E  E   E  E  E E  E  E E  E  E E  E  E 
|---14------14------14------14----|---14------14------14------14----| 
|------14------14------14------14-|------14------14------14------14-| 
|---------------------------------|---------------------------------| 
|-5-------7-------8-------7-------|-5-------7-------8-------5-------| 
  Q       Q       Q       Q         Q       Q       Q       Q 
 
 
  C 
  |--3--|  |--3--| |--3--|  |--3--|   |--3--| |--3--| |--3--| |--3--| 
  E  E  E  E  E  E E  E  E  E  E  E   E  E  E E  E  E E  E  E E  E  E 
|---17-------17------17-------17----|---17------17------17------17-------| 
|------17-------17------17-------17-|------17------17------17------17----| 
|------------------7----------------|------------------------------------| 
|-8-------10---------------10-------|-8-------8-------7-------5----------| 
  Q        Q       Q        Q         Q       Q       Q       Q 
 
 
  |--3--| |--3--| |--3--| |--3--|    |--3--|  |--3--|  |--3--|  |--3--| 
  E  E  E E  E  E E  E  E E  E  E    E  E  E  E  E  E  E  E  E  E  E  E 
|---12------12------12------12----|----12-------12-------12-------12----| 
|------12------12------12------12-|-------12-------12-------12-------12-| 
|---------------------------------|-------------------10-------10-------| 
|-3-------3-------7-------7-------|-10-------10-------------------------| 
  Q       Q       Q       Q          Q        Q        Q        Q 
 
 
                                 D.S. al Coda 
   |--3--| |--3--| |--3--|  |--3--| 
   E  E  E E  E  E E  E  E  E  E  E   H    H 
|----12------12------12-------12----|-----------|| 
|-------12------12------12-------12-|-----------|| 
|-10-------8-------7----------------|-----------|| 
|--------------------------10-------|-8---------|| 
   Q       Q       Q        Q 
 
 
  & 
                                                                G  C 
  Gtr I                                     Gtr III 
                                               |-3-| 
  E  E  E  E E  E  E  E   E  E  E  E H      Q  E E E Q  Q    Q  Q  Q  Q 
|-5-17---------17-------|---17------------|-5--------------|----4--5------*| 
|------17----5----17----|------17---------|----5h7p5-6--5--|----3--2------*| 
|---------19---------19-|-7-------19------|----------------|--------------*| 
|-----------------------|------------8----|----------------|--------------*| 
 
 
 

		  

Full key step upFull key step up
Half key step upHalf key step up
Half key step downHalf key step down
Full key step downFull key step down
hide glossary

See also:

bass The Killers - Somebody told me (ver. 2) bass Guns N' Roses - Estranged bass Guns N' Roses - Attitude bass The Offspring - Want You Bad bass Kiss - Beth bass Foo Fighters - Ever Long
e-chords

Other versions:

bass Stuart Hamm - Country Music
auto scroll beats size up size down change color hide chords drawings
tab show chords e-chords YouTube Clip e-chords hide all tabs e-chords go to top tab

share