REM

home > REM

Losing my religion Bass Tab

REM

Difficulty: BeginnerBeginner

by gilson%5Fita%5Fse

tuner correct add songbook print version text version save to e-mail
chordsukulelecavacokeyboardtabbassdrumsharmonicsflute Guitar Pro
chords

Losing my religion

Year: 1992 - Album: In Time: The Best of R.E.M. 1988-2003

(Bill Berry/ Michael Stipe/ Mike Mills/ Peter Buck)

	  Intro: 

G|-------------------------------------------------------------| 
D|---2------3--3-3--3-------5--5-7\----------2--3--3-3--3------| 
A|-5---5-3-------------5-5-----------2--3--5---------------5-5-| 
E|-------------------------------------------------------------| 

G|---------------------------| 
D|--5--5-7-------------------| 
A|---------------------------| 
E|----------5--5-3---3-3--3--| 

Verse: 

G|-----------------------------------------------------------------| 
D|---------7------------------------------------7------------------| 
A|--------------------7------------------------------------7-------| 
E|-5--5-5-----3-5--7-----2--0---0-0--3--5--5-5-----3-5--7-----2--0-| 

G|-------------------------------------------------7--------------| 
D|----------------7----------------------------------------------5| 
A|---------------------------7----------7-6-5--5-5----0-5--5-7----| 
E|0-0--3--5--5-5-----3-5--7-----2--0--7---------------------------| 

G|--------------| 
D|--------------| 
A|--------------| 
E|-3-3---3-3--3-| 

Chorus: 

G|---------------------------------------------------------------| 
D|-----2-----3--3-3--3------5--5-7-----------2--3--3-3--3------5-| 
A|-3-5---5-3------------5-5---------2--3--5----------------5-5---| 
E|---------------------------------------------------------------| 

G|-----------------------| 
D|--5-7------------------| 
A|-----------------------| 
E|-------5--5-3---3-3--3-| 

Bridge: 

G|------------------------------------------------------| 
D|---------------------------------------------2--------| 
A|---------------------3----5----3----5----3-5---5-3----| 
E|-5----3----1----3----------------------------------5--| 

Chorus 2: 

G|---------------------------------------------------------------| 
D|-----2-----3--3-3--3------5--5-7-----------2--3--3-3--3------5-| 
A|-3-5---5-3------------5-5---------2--3--5----------------5-5---| 
E|---------------------------------------------------------------| 

G|-----------------------------------| 
D|--5-7----------2--3--3-3--3------5-| 
A|------2-3---5----------------5-5---| 
E|-----------------------------------| (2x) 

G|------------------------| 
D|--5-7-------------------| 
A|------------------------| 
E|--------5--5-3---3-3--3-| 

End: 

G|------------------------| 
D|------------------------| 
A|------------------------| 
E|-5----3-5----3-5----3-5-| 

	  

there isn't a video lesson for this song

request
Search
auto scroll beats size up size down change color hide chords drawings
tab show chords e-chords YouTube Clip e-chords hide all tabs e-chords go to top tab