Sanford Clark

Go On Home

Sanford Clark

bass

by  HUGO_RODRIGUES

save to print version add songbook text version e-mail correct tuner
chordsukulelecavacokeyboardtabbassdrumsharmonicaflute Guitar Pro
close

there isn't a video lesson for this song

chords

Go On Home

	  		
Tuning: EADG 

0:07 

G|----------------------------------------------------------------| 
D|----------------------------------------4---------------4-------| 
A|5---------------5---------------2---------------2---------------| 
E|--------5---------------5---------------------------------------| 

G|----------------------------------------------------------------| 
D|----------------------------------------------------------------| 
A|5---------------5-----------------------7---------------7-------| 
E|--------5---------------5-------5---------------5---------------| 

G|----------------------------------------------------------------| 
D|----------------------------------------------------------------| 
A|5---------------5-----------------------5---------------5-------| 
E|--------5---------------5-------3---------------3---------------| 

G|--------------------------------| 
D|--------------------------------| 
A|5---------------3---------------| 
E|--------5---------------3-------| 

G|------------------------------------------------| 
D|------------------------------------------------| 
A|5-----------------------------------------------| 
E|------------------------------------------------| 

0:36 

G|----------------------------------------------------------------| 
D|----------------------------------------4---------------4-------| 
A|5---------------5---------------2---------------2---------------| 
E|--------5---------------5---------------------------------------| 

G|----------------------------------------------------------------| 
D|----------------------------------------------------------------| 
A|5---------------5-----------------------7---------------7-------| 
E|--------5---------------5-------5---------------5---------------| 

G|----------------------------------------------------------------| 
D|----------------------------------------------------------------| 
A|5---------------5-----------------------5---------------5-------| 
E|--------5---------------5-------3---------------3---------------| 

G|--------------------------------| 
D|--------------------------------| 
A|5---------------3---------------| 
E|--------5---------------3-------| 

G|------------------------------------------------| 
D|------------------------------------------------| 
A|5-----------------------------------------------| 
E|------------------------------------------------| 

1:05 

G|----------------------------------------------------------------| 
D|----------------------------------------------------------------| 
A|--------5---------------5-------5---------------5---------------| 
E|3---------------3-----------------------5---------------5-------| 

G|----------------------------------------------------------------| 
D|----------------------------------------------------------------| 
A|--------5---------------5---------------------------------------| 
E|3---------------3---------------5-------------------------------| 

1:19 

G|----------------------------------------------------------------| 
D|----------------------------------------4---------------4-------| 
A|5---------------5---------------2---------------2---------------| 
E|--------5---------------5---------------------------------------| 

G|----------------------------------------------------------------| 
D|----------------------------------------------------------------| 
A|5---------------5-----------------------7---------------7-------| 
E|--------5---------------5-------5---------------5---------------| 

G|----------------------------------------------------------------| 
D|----------------------------------------------------------------| 
A|5---------------5-----------------------5---------------5-------| 
E|--------5---------------5-------3---------------3---------------| 

G|------------------------------------| 
D|------------------------------------| 
A|5---------------3---------------5---| 
E|--------5---------------3-----------| 
		  

See also:

bass Guns N' Roses - Civil War bass Kiss - Black Diamond bass Guns N' Roses - Sweet Child O' Mine bass Guns N' Roses - Coma bass Guns N' Roses - Sweet Child O' Mine (ver. 2) bass Counting Crows - Mr Jones
e-chords

Other versions:

bass Sanford Clark - Go On Home
auto scroll beats size up size down change color hide chords drawings
tab show chords e-chords YouTube Clip e-chords hide all tabs e-chords go to top tab

share